Home » H » Hannah Trigwell »

Hannah Trigwell - Hearts On Fire Tabs

Artists:  A B C D E F G H I J K L M N O P Q R S T U V W X Y Z # 

Hearts On Fire Tabs

(ver. 1) Click to play this song!
Hannah Trigwell
 Rating:
4/5 (4 votes)
                The fingerpicking is the accoustic version.
The Em chord in brackets is for the standard studio version.

For the accoustic version :
- Play the fingerpicking parts
- Ignore the Em

For the standard studio version :
- Strum the chords
- Play the Em => The first Em of each chorus is 
played on the 7th freth

e|--7---
b|--8---
g|--9---
d|--9---
a|--7---
E|------

Tuning: E A D G B E


               Hearts on,       hearts on,              fire

            Bm              D               G                (Em)
e|---------------------------------------------------------------------------|
B|----------3---------------3---------------0--------------------------------|
G|---------------------------------------------------------------------------|
D|--------------------------0------------------------------------------------|
A|----------2----------------------------------------------------------------|
E|------------------------------------------3--------------------------------|


               Hearts on,       hearts on,              fire

            Bm              D               G                (Em)
e|---------------------------------------------------------------------------|
B|----------3---------------3---------------0--------------------------------|
G|---------------------------------------------------------------------------|
D|--------------------------0------------------------------------------------|
A|----------2----------------------------------------------------------------|
E|------------------------------------------3--------------------------------|


              I see it;       burn in your eyes and I feel it

            Bm              D               G                (Em)
e|---------------------------------------------------------------------------|
B|----------3---------------3---------------0--------------------------------|
G|---------------------------------------------------------------------------|
D|--------------------------0------------------------------------------------|
A|----------2----------------------------------------------------------------|
E|------------------------------------------3--------------------------------|


              You heal me,      every night     when I need it

            Bm              D               G                (Em)
e|---------------------------------------------------------------------------|
B|----------3---------------3---------------0--------------------------------|
G|---------------------------------------------------------------------------|
D|--------------------------0------------------------------------------------|
A|----------2----------------------------------------------------------------|
E|------------------------------------------3--------------------------------|


There can't be too much       I want to give you, show you

                    Bm                             D                            
e|---------------------------------------------------------------------------|
B|------------------3------------------------------3-------------------------|
G|---------------------4-------------------------------2---------------------|
D|-------------------------------------------------0-------------------------|
A|------------------2--------------------------------------------------------|
E|---------------------------------------------------------------------------|


 Just one touch you can ignite my soul

            G                                   (Em)
e|---------------------------------------------------------------------------|
B|----------0----------------------------------------------------------------|
G|---------------------------------------------------------------------------|
D|---------------------------------------------------------------------------|
A|---------------------------------------------------------------------------|
E|----------3----------------------------------------------------------------|


      Come alive every time     I hold you              Can you feel it glow?

            Bm                      D                           G
e|----------------------------------------------------------------------------|
B|----------3-----------------------3---------------------------0-------------|
G|-------------4-----------------------2--------------------------------------|
D|----------------------------------0-----------------------------------------|
A|----------2-----------------------------------------------------------------|
E|--------------------------------------------------------------3-------------|


'Cause we're dancing through the flames Never burning brighter

             Em                 Bm                  D               F#m
e|---------------------------------------------------------------------------|
B|-----------0------------------3-------------------3------------------------|
G|------------------------------4-------------------2----------------2-------|
D|--------------------------------------------------0------------------------|
A|-----------2------------------2--------------------------------------------|
E|-------------------------------------------------------------------2-------|


With our hearts on fire,          with our hearts on fire

             Em                 Bm                  D               F#m
e|---------------------------------------------------------------------------|
B|-----------0------------------3-------------------3------------------------|
G|------------------------------4-------------------2----------------2-------|
D|--------------------------------------------------0------------------------|
A|-----------2------------------2--------------------------------------------|
E|-------------------------------------------------------------------2-------|


Recklessly     remain                   Slaves to desire

   G                   D                Bm               F#m
e|----------3------------------2---------------------------------------------|
B|-0-----------0------3-----------3------3--------3------------------2-------|
G|----0-----------0------2-----------2------4--------4------2-----------2----|
D|-------0------------0-----0------------------4--------4------4-----------4-|
A|---------------------------------------2------------------------4----------|
E|-3--------------------------------------------------------2----------------|


 With our hearts on fire,        with our hearts on fire

   G                  D                 Bm              F#m
e|----------3------------------2---------------------------------------------|
B|-0-----------0------3-----------3------3--------3--------------------------|
G|----0-----------0------2-----------2------4--------4------2----------------|
D|-------0------------0-----0------------------4--------4--------------------|
A|---------------------------------------2-----------------------------------|
E|-3--------------------------------------------------------2----------------|


            Hearts on,          hearts on,              fire

            Bm              D               G                (Em)
e|---------------------------------------------------------------------------|
B|----------3---------------3---------------0--------------------------------|
G|---------------------------------------------------------------------------|
D|--------------------------0------------------------------------------------|
A|----------2----------------------------------------------------------------|
E|------------------------------------------3--------------------------------|


            Hearts on,          hearts on,              fire

            Bm              D               G                (Em)
e|---------------------------------------------------------------------------|
B|----------3---------------3---------------0--------------------------------|
G|---------------------------------------------------------------------------|
D|--------------------------0------------------------------------------------|
A|----------2----------------------------------------------------------------|
E|------------------------------------------3--------------------------------|


            You haunt me; w  hen I'm in doubt know where I should be

            Bm              D               G                (Em)
e|---------------------------------------------------------------------------|
B|----------3---------------3---------------0--------------------------------|
G|---------------------------------------------------------------------------|
D|--------------------------0------------------------------------------------|
A|----------2----------------------------------------------------------------|
E|------------------------------------------3--------------------------------|


            Here honey; you lock me down burning endlessly

            Bm              D               G                (Em)
e|---------------------------------------------------------------------------|
B|----------3---------------3---------------0--------------------------------|
G|---------------------------------------------------------------------------|
D|--------------------------0------------------------------------------------|
A|----------2----------------------------------------------------------------|
E|------------------------------------------3--------------------------------|


There isn't one second I'm not yearning for you

                Bm                              D                               
e|---------------------------------------------------------------------------|
B|--------------3-------------------------------3----------------------------|
G|-----------------4-------------------------------2-------------------------|
D|----------------------------------------------0----------------------------|
A|--------------2------------------------------------------------------------|
E|---------------------------------------------------------------------------|


Just one minute let my love control you

            G                                   (Em)
e|---------------------------------------------------------------------------|
B|----------0----------------------------------------------------------------|
G|---------------------------------------------------------------------------|
D|---------------------------------------------------------------------------|
A|---------------------------------------------------------------------------|
E|----------3----------------------------------------------------------------|


          Rising up from this inferno brand new

                Bm                              D                               
e|---------------------------------------------------------------------------|
B|--------------3-------------------------------3----------------------------|
G|-----------------4-------------------------------2-------------------------|
D|----------------------------------------------0----------------------------|
A|--------------2------------------------------------------------------------|
E|---------------------------------------------------------------------------|


Can't let it go

            G                                   (Em)
e|---------------------------------------------------------------------------|
B|----------0----------------------------------------------------------------|
G|---------------------------------------------------------------------------|
D|---------------------------------------------------------------------------|
A|---------------------------------------------------------------------------|
E|----------3----------------------------------------------------------------|


'Cause we're dancing through the flames Never burning brighter

             Em                 Bm                  D               F#m
e|---------------------------------------------------------------------------|
B|-----------0------------------3-------------------3------------------------|
G|------------------------------4-------------------2----------------2-------|
D|--------------------------------------------------0------------------------|
A|-----------2------------------2--------------------------------------------|
E|-------------------------------------------------------------------2-------|


With our hearts on fire,                with our hearts on fire

             Em                 Bm                  D               F#m
e|---------------------------------------------------------------------------|
B|-----------0------------------3-------------------3------------------------|
G|------------------------------4-------------------2----------------2-------|
D|--------------------------------------------------0------------------------|
A|-----------2------------------2--------------------------------------------|
E|-------------------------------------------------------------------2-------|


Recklessly remain       Slaves to desire

   G                  D                  Bm               F#m
e|----------3------------------2---------------------------------------------|
B|-0-----------0------3-----------3------3--------3------------------2-------|
G|----0-----------0------2-----------2------4--------4------2-----------2----|
D|-------0------------0-----0------------------4--------4------4-----------4-|
A|---------------------------------------2------------------------4----------|
E|-3--------------------------------------------------------2----------------|


With our hearts on fire, with our hearts on fire

   G                  D                  Bm               F#m
e|----------3------------------2---------------------------------------------|
B|-0-----------0------3-----------3------3--------3------------------2-------|
G|----0-----------0------2-----------2------4--------4------2-----------2----|
D|-------0------------0-----0------------------4--------4------4-----------4-|
A|---------------------------------------2------------------------4----------|
E|-3--------------------------------------------------------2----------------|


If it turns cold,          like December

             G                     Bm
e|---------------------------------------------------------------------------|
B|-----------0----------------------3----------------------------------------|
G|---------------------------------------------------------------------------|
D|---------------------------------------------------------------------------|
A|----------------------------------2----------------------------------------|
E|-----------3---------------------------------------------------------------|


     Just remember how you held me close

            D                           G
e|---------------------------------------------------------------------------|
B|----------3---------------------------0------------------------------------|
G|---------------------------------------------------------------------------|
D|----------0----------------------------------------------------------------|
A|---------------------------------------------------------------------------|
E|--------------------------------------3------------------------------------|


     If the embers        die, 

            G                                       D           
e|---------------------------------------------------------------------------|
B|----------0---------------------------------------3------------------------|
G|-------------0---------------------------------------2---------------------|
D|----------------0---------------------------------0-----0------------------|
A|---------------------------------------------------------------------------|
E|----------3----------------------------------------------------------------|


        we can say                              that tonight

              F#m                                A
e|---------------------------------------------------------------------------|
B|-----------------------------------------------5-----------5-------------5-|
G|-------------2------------------------------------6-----6------6------6----|
D|----------------4------------------------------------7------------7--------|
A|-------------------4-------------------------------------------------------|
E|-------------2---------------------------------5---------------------------|


      we're dancing through the flames  Never burning brighter

            Em                  Bm                  D               F#m
e|---------------------------------------------------------------------------|
B|-----------0------------------3-------------------3------------------------|
G|------------------------------4-------------------2----------------2-------|
D|--------------------------------------------------0------------------------|
A|-----------2------------------2--------------------------------------------|
E|-------------------------------------------------------------------2-------|


With our hearts on fire,                with our hearts on fire

            Em                  Bm                  D                F#m
e|---------------------------------------------------------------------------|
B|-----------0------------------3-------------------3------------------------|
G|------------------------------4-------------------2----------------2-------|
D|--------------------------------------------------0------------------------|
A|-----------2------------------2--------------------------------------------|
E|-------------------------------------------------------------------2-------|


Recklessly remain               Slaves to desire

   G                  D                  Bm                F#m
e|----------3------------------2---------------------------------------------|
B|-0-----------0------3-----------3------3--------3------------------2-------|
G|----0-----------0------2-----------2------4--------4------2-----------2----|
D|-------0------------0-----0------------------4--------4------4-----------4-|
A|---------------------------------------2------------------------4----------|
E|-3--------------------------------------------------------2----------------|


With our hearts on fire, with our hearts on fire

   G                  D                  Bm                F#m
e|----------3------------------2---------------------------------------------|
B|-0-----------0------3-----------3------3--------3------------------2-------|
G|----0-----------0------2-----------2------4--------4------2-----------2----|
D|-------0------------0-----0------------------4--------4------4-----------4-|
A|---------------------------------------2------------------------4----------|
E|-3--------------------------------------------------------2----------------|


        Hearts on,           hearts on,      fire
                
            Bm              D               G           (Em)
e|---------------------------------------------------------------------------|
B|----------3---------------3---------------0--------------------------------|
G|---------------------------------------------------------------------------|
D|--------------------------0------------------------------------------------|
A|----------2----------------------------------------------------------------|
E|------------------------------------------3--------------------------------|


        Hearts on,           hearts on,      fire
                
            Bm              D               G           (Em)
e|---------------------------------------------------------------------------|
B|----------3---------------3---------------0--------------------------------|
G|---------------------------------------------------------------------------|
D|--------------------------0------------------------------------------------|
A|----------2----------------------------------------------------------------|
E|------------------------------------------3--------------------------------|
            
Submit corrections

↑ Back to top | Tablatures and chords for acoustic guitar and electric guitar, ukulele, drums are parodies/interpretations of the original songs. You may use it for private study, scholarship, research or language learning purposes only