» » »

Hank Williams Iii - You're The Reason Tabs

Artists:  A B C D E F G H I J K L M N O P Q R S T U V W X Y Z # 

You're The Reason Tabs

(ver. 1) Click to play this song!
Hank Williams Iii
 Rating:
4/5 (4 votes)

 You're The Reason lessons Tabs too difficult? Try these video lessons and learn fast
 
                Hank Williams III - You're The Reason (lead)


***********************************************************************

\   =   slide down                         /   =   slide up

x   =   dead note                          pbr =   pre-bend & release

b   =   bend                               br  =   bend & release

***********************************************************************


INTRO

                                                  steel takes over
E----------------------------------------------------|
B-----------------------------5-4\3-2--3-4/5-4\3-2---|
G--1-2-4-3\2-1--2-4-3\2-1--4/6--5\4-2--4-5/6-5\4-2---|
D--2-4-6-5\4-2--4-6-5\4-2----------------------------|
A----------------------------------------------------|
E----------------------------------------------------|



SOLO

                                                   rake
E----------------------------------------------------------------------
B----------------------------5-4\3-2--3-4/5-4\3-2------2---------------
G-2/3-4-3\2-1--2-4-3\2-1--4/6--5\4-2--4-5/6-5\4-2----4---4pbr-2-2-4b-2-
D-4/5-6-5\4-2--4-6-5\4-2----------------------------x----------4-x-----
A--------------------------------------------------x-------------------
E----------------------------------------------------------------------

                              steel takes over
E--------------------------------|
B-------4------------------------|
G-------4------------------------|
D---------7--4-3-2---------------|
A--4/5-6-x----x-x-4br-2-4--------|
E------------------------2br-0---|



ENDING


E-------------------------0----------------------------------|
B-----------4/5-4\3-2----------------------------------------|
G--4-3\2-1--5/6-5\4-2--2/4-4\2-0-----------------------------|
D--6-5\4-2-----------------------2-1-0-------------------2---|
A--------------------------------------2-1-0-----------------|
E--------------------------------------------2br-0--2/3/4----|


            
Submit corrections


        You're The Reason lessons Hard to play? Try these video lessons and learn fast You're The Reason lessons
        
↑ Back to top | Tablatures and chords for acoustic guitar and electric guitar, ukulele, drums are parodies/interpretations of the original songs. You may use it for private study, scholarship, research or language learning purposes only