» » »

Hank Williams Iii - Trooper's Hollar Tabs

Artists:  A B C D E F G H I J K L M N O P Q R S T U V W X Y Z # 

Trooper's Hollar Tabs

(ver. 1) Click to play this song!
Hank Williams Iii
 Rating:
4/5 (4 votes)

 Trooper's Hollar lessons Tabs too difficult? Try these video lessons and learn fast
 
                Hank III
Trooper’s Hollar (Banjo)

Fun Song to Play

Intro:
D—-5-------5----
B----------0----
G------0---0----
D----0-----0----
g---------------


Main Riff:
   G
D----0---0---0---0---0---0---0---0-----0---0
B----0---0---0---0---0---0---0---0-----0---0
G—-0-0-0-0-0-0-0-0-0-0-0-0-0-0-0-0---0-0-0-0
D----------------------------------0--------
g-------------------------------------------

Continue until verse

Verse:
I’m  running my dog in a Tennessee holler, listening to what he’s sayin’
     G         Bb    G       Bb      G
   D---0-------3-------0-------3-------0----
   B---0-------3-------0-------3-------0----
   G-0-0-7x—-3-3-8x—-0-0-7x—-3-3-8x—-0-0-4x-
   D----------------------------------------
   g----------------------------------------

Middle Riff
D-5-5-5-3-0-------5-5-5-3-0---0---5-5-5-3-0---0-------------0---0
B-----------------------------------------------------------0---0
G-------------0-------------0---0-----------0---0-5-5-5-3-0-0-0-0
D-----------0---0------------------------------------------------
g---------------------------------------------------------------- 2x

Main Riff
Verse: Tooper done got that big ol coon, I can hear that’s what he’s sayin’
Middle Riff
Main Riff
Verse: He got that coon and now he’s ready to see his b***h for a lay
Middle Riff
Main Riff
Verse: If you’re steppin’ on my land, you know what ol Troopers gonna say
Middle Riff
Main Riff
Verse: That suns goin’ down, it’s time to hit that shine again today
Middle Riff
Main Riff
Verse: I’m runnin my dog in a Tennesse holler, listening to what he’s sayin’


Middle Riff,  but end the second time with this:

D-5—-5-3-0---0--------------5---------5--
B-------------------------------------0--
G----------0---0—-3---3br---------0---0--
D------------------------------0------0--
g----------------------------------------
            
Submit corrections


        Trooper's Hollar lessons Hard to play? Try these video lessons and learn fast Trooper's Hollar lessons
        
↑ Back to top | Tablatures and chords for acoustic guitar and electric guitar, ukulele, drums are parodies/interpretations of the original songs. You may use it for private study, scholarship, research or language learning purposes only