» » »

Hank Williams Iii - Gotta Buy Paw A Truck Tabs

Artists:  A B C D E F G H I J K L M N O P Q R S T U V W X Y Z # 

Gotta Buy Paw A Truck Tabs

(ver. 1) Click to play this song!
Hank Williams Iii
 Rating:
4/5 (4 votes)

 Gotta Buy Paw A Truck lessons Tabs too difficult? Try these video lessons and learn fast
 
                "Gotta Buy Paw A Truck
(from the album "Bootleg 3 Demo") 


(Riff 1)
E|----------------------------------------------------------
B|----------------------------------------------------------
G|----------------------------------------------------------
D|-14~~-13~12~10~~-8~7~5~~-4~3~-2---2---2---2---2---2---2---
A|-12~~-11~10~10~~-8~7~5~~-4~3~-2---2---2---2---2---2---2---
E|-12~~-11~10~08~~-6~5~3~~-2~1~-0h3-0h3-0h3-0h3-0h3-0h3-0h3-
                               {............PM.............}



(Riff 2)
E|---------------------------------
B|---------------------------------
G|---------------------------------
D|-2---2---2---2---2---2---3-3-3-3-
A|-2---2---2---2---2---2---3-3-3-3-
E|-0h3-0h3-0h3-0h3-0h3-0h3-1-1-1-1-
  {..........PM...........}        


(Riff 2) continued
E|---------------------------------
B|---------------------------------
G|---------------------------------
D|-2---2---2---2---2---2----5-5-5-5-
A|-2---2---2---2---2---2----5-5-5-5-
E|-0h3-0h3-0h3-0h3-0h3-0h3--3-3-3-3-
  {..........PM...........}{.Harm..}


(Riff 3) 4x
E|---------------------------------
B|---------------------------------
G|---------------------------------
D|-5\4---5\4---5\4-8\7---8\7---8\7-
A|-5\4---5\4---5\4-8\7---8\7---8\7-
E|-3\2-0-3\2-0-3\2-6\5-0-6\5-0-6\5-


(Riff 4)
E|-------------------------------------------------------
B|-------------------------------------------------------
G|-------------------------------------------------------
D|-2---2---2---2---3-2---2---2---2---3-2---2---2---2---3-
A|-2---2---2---2---3-2---2---2---2---3-2---2---2---2---3-
E|-0h3-0h3-0h3-0h3-1-0h3-0h3-0h3-0h3-1-0h3-0h3-0h3-0h3-1-
  {......PM.......} {......PM.......} {......PM.......}


(Riff 5)
E|----------------------------
B|----------------------------
G|----------------------------
D|-3-3-3--3-3-3--3-3-3--3-3-3-
A|-3-3-3--3-3-3--3-3-3--3-3-3-
E|-1-1-1--1-1-1--1-1-1--1-1-1-
 {............PM.............}

======================================

[Riff 1]

[Riff 2]
I gotta buy my paw a truck
cause he got totally too f**ked up
He got so drunk he got in a fight
and then he stole my redneck [Riff 3] ride

I gotta buy my paw a truck
cause he got totally too f**ked up
He got so drunk he got in a fight
and then he stole my redneck [Riff 3]ride

[Riff 4]
Gotta buy my paw a truck
Gotta buy my paw a truck
Gotta buy my paw a truck[Riff 5]

[Riff 4]
Gotta buy my paw a truck
Gotta buy my paw a truck
Gotta buy my paw a truck[Riff 5]

[Riff 4]
Gotta buy my paw a truck
Gotta buy my paw a truck
Gotta buy my paw a truck[Riff 5]

[Riff 4]
Gotta buy my paw a truck
Gotta buy my paw a truck
Gotta buy my paw a truck[Riff 5]

[Riff 1]

[Riff 4]  (1st half)
I gotta buy my paw a truck
cause he got totally too f**ked up

[Riff 1]

[Riff 4]
I gotta buy my paw a truck
cause he got totally too f**ked up
He got so drunk he got in a fight
and then he stole my redneck ride

[Riff 4]
I gotta buy my paw a truck
cause he got totally too f**ked up
He got so drunk he got in a fight
and then he stole my redneck [Riff 5]ride

[Riff 4]
Gotta buy my paw a truck
Gotta buy my paw a truck
Gotta buy my paw a truck[Riff 5]

[Riff 4]
Gotta buy my paw a truck
Gotta buy my paw a truck
Gotta buy my paw a truck[Riff 5]

[Riff 4]
Gotta buy my paw a truck
Gotta buy my paw a truck
Gotta buy my paw a truck[Riff 5]

[Riff 4]
Gotta buy my paw a truck
Gotta buy my paw a truck
Gotta buy my paw a truck[Riff 5]

"            
Submit corrections


        Gotta Buy Paw A Truck lessons Hard to play? Try these video lessons and learn fast Gotta Buy Paw A Truck lessons
        
↑ Back to top | Tablatures and chords for acoustic guitar and electric guitar, ukulele, drums are parodies/interpretations of the original songs. You may use it for private study, scholarship, research or language learning purposes only