» » »

Hank Williams Iii - Blue Devil Tabs

Artists:  A B C D E F G H I J K L M N O P Q R S T U V W X Y Z # 

Blue Devil Tabs

(ver. 1) Click to play this song!
Hank Williams Iii
 Rating:
4/5 (4 votes)

 Blue Devil lessons Tabs too difficult? Try these video lessons and learn fast
 
                (Solo)

Solo Tab:

E|----------------------------------------
B|----------------------------------------
G|-/11-11-11-11--11----/11-11-11-11--11---
D|-----------------11------------------11-
A|----------------------------------------
E|----------------------------------------



E|-----------------------------------------
B|-----------------------------------------
G|---9-11---9-11---9-11---9-11--9-11--9-11-
D|-11-----11-----11-----11-----------------
A|-----------------------------------------
E|-----------------------------------------


  (bend) (rel)
E|--------------------------------------------
B|-12b14-14r12-12-10-----12b14-14r12-12-10----
G|-------------------11--------------------11-
D|--------------------------------------------
A|--------------------------------------------
E|--------------------------------------------



E|----------------------------------------
B|-------10-------10-------10---10---10---
G|---9-11-----9-11-----9-11--11---11------
D|-11-------11-------11-------------------
A|----------------------------------------
E|----------------------------------------


     (bend)   (rel)      (bend)    (bend)   (rel)     (bend)
E|----------------------------------------------------------
B|12-12b14-14-14r(12)-12-12b14--12-12b14-14-14r(12)-12-12b14
G|----------------------------------------------------------
D|----------------------------------------------------------
A|----------------------------------------------------------
E|----------------------------------------------------------


E|----------------------------------------------
B|----------------------------------------------
G|----9---9---9---9---9-----9---9---9---9---9---
D|-/11--11--11--11--11---/11--11--11--11--11----
A|----------------------------------------------
E|----------------------------------------------


            
Submit corrections


        Blue Devil lessons Hard to play? Try these video lessons and learn fast Blue Devil lessons
        
↑ Back to top | Tablatures and chords for acoustic guitar and electric guitar, ukulele, drums are parodies/interpretations of the original songs. You may use it for private study, scholarship, research or language learning purposes only