» » »

Hammerfall - Blood Bound Bass

Artists:  A B C D E F G H I J K L M N O P Q R S T U V W X Y Z # 

Blood Bound Bass

(ver. 2) Click to play this song!
Hammerfall
 Rating:
4/5 (4 votes)
                                   Hammerfall- Blood Bound (Bass)

Intro
 |---------------------------------------------------------------------------------|
 |---------------------------------------------------------------------------------|
 |--------------3-33333-2-22222-3-33-5-55---------------3-33333-2-22222-3-33-5-55--|
 |---0-00000-------------------------------------0-000000--------------------------|


Verse
 |----------------------------------------------------------------------------|
 |----------------------------------------------------------------------------|
 |----------------------------------5----------------------------------5------|
 |--0-000-0-0-000320-00000-----0-000-0-0-000320-00000-------------------------|

 |-------------------------------------------------------------------------------|
 |-------------------------------------------------------------------------------|
 |------------------------------3332----------------------------------5----------|
 |--0-000-0-0-000320-00----------0-000-0-0-000320-00000--------------------------|

 |--------------------------------------|
 |--------------------------------------|
 |-----------------------------3332-----|
 |--0-000-0-0-000320-00-----------------|


Chorus
 |-------------------------------------------------------------------------------------|
 |-------------------------------------------------------------------------------------|
 |---------------------------5555555555555555---------------33333333-55555555-2222-22--|
 |--3333333333333333---------------------------00000000--------------------------------|

 |-----------------------------------------------------------------------------------------|
 |-----------------------------------------------------------------------------------------|
 |---------------33333333--------------22222-22-----------------333333------------2---22---|
 |--33200000--------------33333333--------------3320000000----------3333333----------3320--|

Verse
 |---------------------------------------------------------------------|
 |---------------------------------------------------------------------|
 |---------------------------------5-----------------------------3332--|
 |--0-000-0-0-000320-00000----0-000-0-0-000320-00----------------------|


Chorus
 |-------------------------------------------------------------------------------------|
 |-------------------------------------------------------------------------------------|
 |---------------------------5555555555555555---------------33333333-55555555-2222-22--|
 |--3333333333333333---------------------------00000000--------------------------------|

 |-----------------------------------------------------------------------------------------|
 |-----------------------------------------------------------------------------------------|
 |---------------33333333--------------22222-22-----------------333333------------2---22---|
 |--33200000--------------33333333--------------3320000000----------3333333----------3320--|


Verse
 |------------------------------------------------------|
 |------------------------------------------------------|
 |---------------------------------------------------5--|
 |--2----3-2----3-2-----2-0---2----3-2----2-5-----------|


Solo
 |-----------------------------------------------------------------------------------------------|
 |-----------------------------------------------------------------------------------------------|
 |-------------------------------------------------------------------------------0000000000000000|
 |--22222222222222-33-0000000000000000-22222222222222-33-----------------------------------------|

 |-------------------------------------------------------------------------------|
 |-------------------------------------------------------------------------------|
 |-------------3-33333-2-22222-3-33-5-55-------------3-333333-2-22222-3-33-5-55--|
 |--0-00000-------------------------------------0-00000--------------------------|


Intro Type Riff
 |-----------------------------------------------------------------------------------------------|
 |-----------------------------------------------------------------------------------------------|
 |-------------3----------2----------3-----5----------------3----------2----------3-----5-----3--|
 |--0---------------------------------------------0----------------------------------------------|

 |--------------|
 |--------------|
 |--22----------|
 |-----3320-----|

Then there is an ending, if you know the song you should be able to improvise the rest 
the notes  as they are the same all the way through the song.
            
Submit corrections

↑ Back to top | Tablatures and chords for acoustic guitar and electric guitar, ukulele, drums are parodies/interpretations of the original songs. You may use it for private study, scholarship, research or language learning purposes only