» » »

Hammerfall - Any Means Necessary Tabs

Artists:  A B C D E F G H I J K L M N O P Q R S T U V W X Y Z # 

Any Means Necessary Tabs

(ver. 1) Click to play this song!
Hammerfall
 Rating:
3.4/5 (5 votes)


 Any Means Necessary lessons Tabs too difficult? Try these video lessons and learn fast
 
                Hi!!!This is a second verse for the song
Any Means Necessary by Hammerfall.
The old one version is again made by me.
However this more correct.Check it out:

Album:No Sacrifice No Victory
Tuning:Drop down to eB

Tab Key:
h=hammer-on
p=pull-off
/=slide up
\=slide down
b=bend
r=return bend
()=ghost note
X=dead note
*=palm mute

Intro:


e----------------------------------|
B----------------------------------|
G----------------------------------|
D-\2-2---2-0-2-3-0---2-2---2-0-5-4-|
A-\2-2---2-0-2-3-0---2-2---2-0-5-4-|
E-\2-2---2-0-2-3-0---2-2---2-0-5-4-|x2


Verse:


e-------------------------------------------------------------|
B-------------------------------------------------------------|
G-------------------------------------------------------------|
D------------------------5\-3----------------------------5\-3-|
A-3--3-3-3--3-3-3--3-3-3-3\-1--3--3-3-3--3-3-3--3--3-3-3-3\-1-|
E-------------------------------------------------------------|


e-----------------------------------|
B-----------------------------------|
G-----------------------------------|
D-----------------------------------|
A------------------------------7/-9-|
E-5--5-5-5--7--7-7-7--5--5-5-5-5/-7-|



e-------------------------------------------------------------|
B-------------------------------------------------------------|
G-------------------------------------------------------------|
D------------------------5\-3----------------------------5\-3-|
A-3--3-3-3--3-3-3--3-3-3-3\-1--3--3-3-3--3-3-3--3--3-3-3-3\-1-|
E-------------------------------------------------------------|


e--------------------------------|
B--------------------------------|
G--------------------------------|
D--------------------------------|
A------------------------------7-|
E-5--5-5-5--7--7-7-7--5--5-5-5-5-|


Pre-Chorus:


e--------------------------------------------------------------|
B--------------------------------------------------------------|
G--------------------------------------------------------------|
D--------------------------------------------------------------|
A----------------------------------------------------6-4-6-(6)-|
E-\3--3-3-3--3-3-3---3-3-3--4--4-4-4--4-4-4--4-4-4-4-4-2-4-(4)-|


Chorus:


e-----------------------------|
B-----------------------------|
G-----------------------------|
D-\7--7--9--6--8--8--10--7--9-|
A-\7--7--9--6--8--8--10--7--9-|
E-\5--5--7--4--6--6---8--5--7-|



After Chorus:


e----------------------------------------------------|
B----------------------------------------------------|
G----------------------------------------------------|
D-----------------------------------------------5--7-|
A--2--2-2-2--2-2-2--2-2-2--2-2-2--2-2-2--2-2-2--3/-5-|
E----------------------------------------------------|



Verse:


e-------------------------------------------------------------|
B-------------------------------------------------------------|
G-------------------------------------------------------------|
D------------------------5\-3----------------------------5\-3-|
A-3--3-3-3--3-3-3--3-3-3-3\-1--3--3-3-3--3-3-3--3--3-3-3-3\-1-|
E-------------------------------------------------------------|


e-----------------------------------|
B-----------------------------------|
G-----------------------------------|
D-----------------------------------|
A------------------------------7/-9-|
E-5--5-5-5--7--7-7-7--5--5-5-5-5/-7-|



e-------------------------------------------------------------|
B-------------------------------------------------------------|
G-------------------------------------------------------------|
D------------------------5\-3----------------------------5\-3-|
A-3--3-3-3--3-3-3--3-3-3-3\-1--3--3-3-3--3-3-3--3--3-3-3-3\-1-|
E-------------------------------------------------------------|


e--------------------------------|
B--------------------------------|
G--------------------------------|
D--------------------------------|
A------------------------------7-|
E-5--5-5-5--7--7-7-7--5--5-5-5-5-|

Pre-Chorus:



e--------------------------------------------------------------|
B--------------------------------------------------------------|
G--------------------------------------------------------------|
D--------------------------------------------------------------|
A----------------------------------------------------6-4-6-(6)-|
E-\3--3-3-3--3-3-3---3-3-3--4--4-4-4--4-4-4--4-4-4-4-4-2-4-(4)-|



Chorus:


e-----------------------------|
B-----------------------------|
G-----------------------------|
D-\7--7--9--6--8--8--10--7--9-|
A-\7--7--9--6--8--8--10--7--9-|
E-\5--5--7--4--6--6---8--5--7-|



The part:I am born to kill judge...goes like this:


e-----------------------------|
B-----------------------------|
G-----------------------------|
D-\7--7--9--6--8--8--10--7--9-|
A-\7--7--9--6--8--8--10--7--9-|
E-\5--5--7--4--6--6---8--5--7-|



After Chorus:

e--------------------------|
B--------------------------|
G--------------------------|
D-----------7*-----------5*|
A-----------7*-----------5*|
E-5--5-5-5-5---5--5-5-5-5--|x2


Bridge:

1st guitar:

e----------------------------|
B-12-13-15-13-12----15-13-12-|
G----------------13b---------|
D----------------------------|
A----------------------------|
E----------------------------|x4

2nd guitar:

e--------------------------|
B--------------------------|
G--------------------------|
D-----------7*-----------5*|
A-----------7*-----------5*|
E-5--5-5-5-5---5--5-5-5-5--|x2

Solo:


e--------------------------------------------------|
B--------------------------------------------------|
G-12b-11-9b--9-11-12b-11-9b--12-14-15b-13-12-11-10-|
D--------------------------------------------------|
A--------------------------------------------------|
E--------------------------------------------------|


e-------------------------------------------------------------|
B-------------------------------------------------------------|
G-/12b-12b-10--10-12-12b-12b-10--11-12-14b-12-11-13b-11-10-10-|
D-------------------------------------------------------------|
A-------------------------------------------------------------|
E-------------------------------------------------------------|


e----------------------------|
B-12-13-15-13-12----15-13-12-|
G----------------13b---------|
D----------------------------|
A----------------------------|
E----------------------------|x2




e--------------------------------------------------------------|
B-15-13-12--15-13-12--15-13-12--17-15-14--17-15-14--17-15-14---|
G---------15--------15--------15--------17--------17--------17-|
D--------------------------------------------------------------|
A--------------------------------------------------------------|
E--------------------------------------------------------------|


e-15b---14/-15*----17b--|
B-----------------------|
G-----------------------|
D-----------------------|
A-----------------------|
E-----------------------|

Chorus:

e-----------------------------|
B-----------------------------|
G-----------------------------|
D-\7--7--9--6--8--8--10--7--9-|
A-\7--7--9--6--8--8--10--7--9-|
E-\5--5--7--4--6--6---8--5--7-|


The part:I am born to kill judge...goes like this:


e-----------------------------|
B-----------------------------|
G-----------------------------|
D-\7--7--9--6--8--8--10--7--9-|
A-\7--7--9--6--8--8--10--7--9-|
E-\5--5--7--4--6--6---8--5--7-|


at the second times the part:I am born to kill judge...
goes like this:

1st guitar:

e----------------------------|
B-12-13-15-13-12----15-13-12-|
G----------------13b---------|
D----------------------------|
A----------------------------|
E----------------------------|x4

2nd guitar:

e--------------------------|
B--------------------------|
G--------------------------|
D-----------7*-----------5*|
A-----------7*-----------5*|
E-5--5-5-5-5---5--5-5-5-5--|x2

Ending:

e---------|
B---------|
G---------|
D-5--4--2-|
A-5--4--2-|
E-3--2--0-|let the notes to play


                   THE            END!!!!!!!

Thank you for reading my tab
            
Submit corrections



        Any Means Necessary lessons Hard to play? Try these video lessons and learn fast Any Means Necessary lessons
        
↑ Back to top | Tablatures and chords for acoustic guitar and electric guitar, ukulele, drums are parodies/interpretations of the original songs. You may use it for private study, scholarship, research or language learning purposes only