» » »

Hammerfall - Always Will Be Tabs

Artists:  A B C D E F G H I J K L M N O P Q R S T U V W X Y Z # 

Always Will Be Tabs

(ver. 2) Click to play this song!
Hammerfall
 Rating:
4/5 (4 votes)

 Always Will Be lessons Tabs too difficult? Try these video lessons and learn fast
 
                Played 2x for solo ...and then 2x for verse ( last time without "0h2" )!

    d                     C       a       d                       f        C
eb------1-----3-----1---------0---------0-------1-----3-----1----------1--------0----
hb----3---3------3-----3-3---1-1-------1------3---3------3-----3-3----1-1------1-----
gb----------2-----2-----2-------0-----2-------------2-----2-----2--------2----0------
db-0-0----------------------2-------------0-0---------------------3-3-------------0h2
ab------------------------3-------0-0--------------------------------------3-3-------
eb-----------------------------------------------------------------------------------

SOLO

eb-----------------------------------------------------------------------------------
hb-10-10-10-10-8-8h10-10-6-6h8-8~6/5-5~~6^(8)v5/1-3-1-3-5-6-3-5-6-8-5-6-8-10-10~~6-8-
gb-----------------------------------------------------------------------------------
db-----------------------------------------------------------------------------------
ab-----------------------------------------------------------------------------------
eb-----------------------------------------------------------------------------------

eb-----------------------------------------------------------------------------------
hb-10-10^(11)v-8~/0----15----17---18--17-15-17-17~~15-13-13~~13-15-17-18~~15-17-18---
gb------------------14----14----14--14--14-------------------------------------------
db-----------------------------------------------------------------------------------
ab-----------------------------------------------------------------------------------
eb-----------------------------------------------------------------------------------

eb-----------------------------------15----15-18-17-17^(18)v-15~~/0------------------
hb-15-17-18-17-15--17-15-17-18-17-18----18-------------------------------------------
gb-----------------------------------------------------------------------------------
db-----------------------------------------------------------------------------------
ab-----------------------------------------------------------------------------------
eb-----------------------------------------------------------------------------------

Bridge: ( you were the wind beneath my wings.... )
    a                e                f                  C      
eb--0-0--0-----0-----0-0--0-----0-----0-0--0-----0-------0-0-0-----------------
hb--1-1----1----1----0-0----0----0----0-0----0----0------1----1-------0h1p0----
gb--2-2-----2----2---0-0------0----0--2-2-----2----2-----0-----0-----0-----0---
db--2-2------2----2--2-2-----2----2---3-3-3----3----(3)--2------(0)-0-------0--
ab--0-0-0------------2-2-2------------3-3----------------3--3------2-----------
eb-------------------0-0--------------1-1--------------------------------------
    a                e                C                  G
eb--0-0--0-----0-----0-0--0-----0-----0-0--0-----0-------3-~-------------------
hb--1-1----1----1----0-0----0----0----1-1----1----1-1----3-~-------------------
gb--2-2-----2----2---0-0------0----0--0-0-----0----0-----0-~-------------------
db--2-2------2----2--2-2-----2----2---2-2------2---------0-~-------------------
ab--0-0-0------------2-2-2------------3-3-3--------------2-~-------------------
eb-------------------0-0---------------------------------3-~-------------------

Chorus: ( so I say farewell.... ) maybe not quite the same....
2nd. guitar strums the chords

    f       a       f   C   G       d       f       a
eb------1-------0---------------3------1--------1---0--------------------------
hb-------1-----1-1---------1-----3--3-3-3--------1--1--------------------------
gb-----2--2---2---2----2--0----0--0--2---2-2---2--2-2--------------------------
db----3----3-2-----2--3--2----0----0------0---3----32--------------------------
ab---3------0--------3--3----2---------------3------0--------------------------
eb--1---------------1-------3---------------1----------------------------------

first riff played twice for 2nd. verse
bridge played for 2nd. bridge
chorus played twice for 2nd. chorus

C-Part ( when I turn to the east.... ) only strumed:

C - D - b - e - G - D - h
C - D - b - e - G - C - G

Chorus played twice for 3th. chorus

chorus played ( only strum chords ) half note higher ( nananana.... )

ending on  ( d# f# g# c# )

---------------------------------------

the names of the chords explain how to play them....the notes are all half step down but
If I had written it so it would be a little bit confusing.
keep the flame burning!!
            
Submit corrections


        Always Will Be lessons Hard to play? Try these video lessons and learn fast Always Will Be lessons
        
↑ Back to top | Tablatures and chords for acoustic guitar and electric guitar, ukulele, drums are parodies/interpretations of the original songs. You may use it for private study, scholarship, research or language learning purposes only