» » »

Halsey - Roman Holiday Tabs

Artists:  A B C D E F G H I J K L M N O P Q R S T U V W X Y Z # 

Roman Holiday Tabs

(ver. 1) Click to play this song!
Halsey
 Rating:
3.1/5 (28 votes)

 Roman Holiday  lessons Tabs too difficult? Try these video lessons and learn fast
 
                -

Intro (I'm not sure about this)

Guitar 1 and/or 2:

e|----10-------------10------------------------------------------------------|
B|-----------13--------------------------------------------------------------|
G|-10----10------10----------------------------------------------------------| x2
D|---------------------------------------------------------------------------|
A|---------------------------------------------------------------------------|
E|---------------------------------------------------------------------------|

--

Verse 1 

Guitar 1:

In the beginning of it there's a weird noise in the background, I can't tell if it's vocals or an instrument
but it's just fret 7 of the G string over and over again and it stops at "I remember when my father..."

then there's what I think is a saxophone that plays

e|-8-8-13-13~-(slight bend on the second 13 as it fades out)-----------------|
B|---------------------------------------------------------------------------|
G|---------------------------------------------------------------------------|
D|---------------------------------------------------------------------------|
A|---------------------------------------------------------------------------|
E|---------------------------------------------------------------------------|

Intro comes back in around "I remember the fear in your eyes..."

e|----10---------------------------------------------------------------------|
B|-----------13--------------------------------------------------------------|
G|-10----10------------------------------------------------------------------| cont. to chorus
D|---------------------------------------------------------------------------|
A|---------------------------------------------------------------------------|
E|---------------------------------------------------------------------------|

Also, while that is playing there's another sax sound, I think it's the same as before

Guitar 2:

e|-8-8-13-13~-(slight bend on the second 13 as it fades out)-----------------|
B|---------------------------------------------------------------------------|
G|---------------------------------------------------------------------------|
D|---------------------------------------------------------------------------|
A|---------------------------------------------------------------------------|
E|---------------------------------------------------------------------------|

--

Chorus

Guitar 1: (these power chords can be played on E, A, and D or A, D, and G)

e|---------------------------------------------------------------------------|
B|---------------------------------------------------------------------------|
G|---------------------------------------------------------------------------| 4x 
D|-3---------7---------5-----------------------------------------------------|
A|-3-(strum)-7-(strum)-5-(strum twice as long)-------------------------------|
E|-1---------5---------3-----------------------------------------------------|

Throughout the chorus, this is played:

e|---------------------------------------------------------------------------|
B|---------------------------------------------------------------------------|
G|-10-(picked over and over again)-------------------------------------------|
D|---------------------------------------------------------------------------|
A|---------------------------------------------------------------------------|
E|---------------------------------------------------------------------------|

Guitar 2: (this is played multiple times in the background, it's hard to hear so it's not that important
to play)

e|-5~-3~---------------------------------------------------------------------|
B|---------------------------------------------------------------------------|
G|---------------------------------------------------------------------------|
D|---------------------------------------------------------------------------|
A|---------------------------------------------------------------------------|
E|---------------------------------------------------------------------------|


--

Verse 2

Guitar 1 and/or 2

e|----10---------------------------------------------------------------------|
B|-----------13--------------------------------------------------------------|
G|-10----10------------------------------------------------------------------| cont. to chorus
D|---------------------------------------------------------------------------|
A|---------------------------------------------------------------------------|
E|---------------------------------------------------------------------------|

The weird noise in the background: fret 7 of the G string over and over again, stops at "I remember
the weight..."

e|-8-8-13-13~-(slight bend on the second 13 as it fades out)-----------------|
B|---------------------------------------------------------------------------|
G|---------------------------------------------------------------------------|
D|---------------------------------------------------------------------------|
A|---------------------------------------------------------------------------|
E|---------------------------------------------------------------------------|

Guitar 1:

e|----10---------------------------------------------------------------------|
B|-----------13--------------------------------------------------------------|
G|-10----10------------------------------------------------------------------| cont. to chorus
D|---------------------------------------------------------------------------|
A|---------------------------------------------------------------------------|
E|---------------------------------------------------------------------------|

Guitar 2:

e|-8-8-13-13~-(slight bend on the second 13 as it fades out)-----------------|
B|---------------------------------------------------------------------------|
G|---------------------------------------------------------------------------|
D|---------------------------------------------------------------------------|
A|---------------------------------------------------------------------------|
E|---------------------------------------------------------------------------|

--

Chorus

Guitar 1: (these power chords can be played on E, A, and D or A, D, and G)

e|---------------------------------------------------------------------------|
B|---------------------------------------------------------------------------|
G|---------------------------------------------------------------------------| 4x 
D|-3---------7---------5-----------------------------------------------------|
A|-3-(strum)-7-(strum)-5-(strum twice as long)-------------------------------|
E|-1---------5---------3-----------------------------------------------------|

Throughout the chorus, this is played:

e|---------------------------------------------------------------------------|
B|---------------------------------------------------------------------------|
G|-10-(picked over and over again)-------------------------------------------|
D|---------------------------------------------------------------------------|
A|---------------------------------------------------------------------------|
E|---------------------------------------------------------------------------|

Guitar 2: (this is played multiple times in the background, it's hard to hear so it's not that important
to play)

e|-5~-3~---------------------------------------------------------------------|
B|---------------------------------------------------------------------------|
G|---------------------------------------------------------------------------|
D|---------------------------------------------------------------------------|
A|---------------------------------------------------------------------------|
E|---------------------------------------------------------------------------|

--

Bridge

Guitar 1:

e|---------------------------------------------------------------------------|
B|---------------------------------------------------------------------------|
G|-3-------------------------------------------------------------------------|
D|-3-(just strum this all the way through with a pause in the middle---------|
A|-1-------------------------------------------------------------------------|
E|---------------------------------------------------------------------------|

Guitar 2:

e|---------------------------------------------------------------------------|
B|---------------------------------------------------------------------------|
G|-10-7-10-7-10-7-5/7--------------------------------------------------------| x4
D|---------------------------------------------------------------------------|
A|---------------------------------------------------------------------------|
E|---------------------------------------------------------------------------|

Instead of playing it all the way through the fourth time, skip the 5/7 and slide down to any fret

After the pause, repeat it 4x again but without either slide at the end, just skip that altogether.
You can play the 10th fret 4x with the drums in the song at this point

When vocals come back into the bridge:

Guitar 1:

e|---------------------------------------------------------------------------|
B|---------------------------------------------------------------------------|
G|-3-------------------------------------------------------------------------|
D|-3-(strum)-3---------------------------------------------------------------|
A|-1---------3-(strum)-------------------------------------------------------|
E|-----------1---------------------------------------------------------------|

Pause during clicking noise and then play again

Guitar 2:

e|---------------------------------------------------------------------------|
B|---------------------------------------------------------------------------|
G|-10-7-10-7-10-7-5/7--------------------------------------------------------| x4
D|---------------------------------------------------------------------------|
A|---------------------------------------------------------------------------|
E|---------------------------------------------------------------------------|

Pause during clicking noise and then play again

--

Final chorus

I can't figure out the tab for whatever the noise in the quiet beginning of the last chorus, sorry.

Guitar 1: (these power chords can be played on E, A, and D or A, D, and G)

e|---------------------------------------------------------------------------|
B|---------------------------------------------------------------------------|
G|---------------------------------------------------------------------------| 4x 
D|-3---------7---------5-----------------------------------------------------|
A|-3-(strum)-7-(strum)-5-(strum twice as long)-------------------------------|
E|-1---------5---------3-----------------------------------------------------|

Throughout the chorus, this is played:

e|---------------------------------------------------------------------------|
B|---------------------------------------------------------------------------|
G|-10-(picked over and over again)-------------------------------------------|
D|---------------------------------------------------------------------------|
A|---------------------------------------------------------------------------|
E|---------------------------------------------------------------------------|

Guitar 2: (this is played multiple times in the background, it's hard to hear so it's not that important
to play)

e|-5~-3~---------------------------------------------------------------------|
B|---------------------------------------------------------------------------|
G|---------------------------------------------------------------------------|
D|---------------------------------------------------------------------------|
A|---------------------------------------------------------------------------|
E|---------------------------------------------------------------------------|

--

Outro

Guitar 1:

e|----10-------------10------------------------------------------------------|
B|-----------13--------------------------------------------------------------|
G|-10----10------10----------------------------------------------------------|
D|---------------------------------------------------------------------------|
A|---------------------------------------------------------------------------|
E|---------------------------------------------------------------------------|

Guitar 2:

e|-8-8-13-13~-(slight bend on the second 13 as it fades out)-----------------|
B|---------------------------------------------------------------------------|
G|---------------------------------------------------------------------------|
D|---------------------------------------------------------------------------|
A|---------------------------------------------------------------------------|
E|---------------------------------------------------------------------------|            
Submit corrections


        Roman Holiday  lessons Hard to play? Try these video lessons and learn fast Roman Holiday  lessons
        
↑ Back to top | Tablatures and chords for acoustic guitar and electric guitar, ukulele, drums are parodies/interpretations of the original songs. You may use it for private study, scholarship, research or language learning purposes only