» » »

Halsey - Is There Somewhere Tabs

Artists:  A B C D E F G H I J K L M N O P Q R S T U V W X Y Z # 

Is There Somewhere Tabs

(ver. 1) Click to play this song!
Halsey
 Rating:
3.2/5 (30 votes)

 Is There Somewhere lessons Tabs too difficult? Try these video lessons and learn fast
 
                You were...

e|---------------------------------------------------------------------------|
B|-----------------------2-----------2--2--5--5--5--2--------2---------------|
G|--2--2--4--2--4--2--4-----4--2--4--------------------4--4-----4--2---------|
D|---------------------------------------------------------------------------|
A|---------------------------------------------------------------------------|
E|---------------------------------------------------------------------------|

Light one up...

e|----------------------------------------------------------------------------|
B|----------------------------------------------------------------------------|
G|----------------------------------------------------------------------------|
D|----------------------------------------------------------------------------|
A|----------------------------------------------------------------------------|
E|----------------------------------------------------------------------------|

White sheets...

e|----------------------------------------------------------------------------|
B|--5--2--5--2--5--5--2--0--0--5--2--0--0--0--0--0--0--0--2--0----------------|
G|--------------------------------------------------------------2--2----------|
D|----------------------------------------------------------------------------|
A|----------------------------------------------------------------------------|
E|----------------------------------------------------------------------------|

But your...

e|-----------------------------------------------------------------------------|
B|-----------------2--5--5--5--2--------5--5--2--0-----0--2--2--0-----0--------|
G|--2--2--4--2--4-----------------2--2--------------2--------------2-----2--4--|
D|-----------------------------------------------------------------------------|
A|-----------------------------------------------------------------------------|
E|-----------------------------------------------------------------------------|

I'm trying not to...

e|-----------------------------------------------------------------------------|
B|-----5--5--5--5--5--2--0-----5--5--5--5--5--2--0-----------2-----------------|
G|--2-----------------------2-----------------------2--2--4-----4--2--4--2--4--|
D|-----------------------------------------------------------------------------|
A|----------------------------------------------------------------------------=|
E|----------------------------------------------------------------------------=|

'Cause I clutched....

e|------------------------------------------------------------------|
B|-----------------10--9--------------------------------------------|
G|--2--2--4--6--9---------9--6--4--2--2--4--6--9--2--4--2--1--2-----|
D|------------------------------------------------------------------|
A|------------------------------------------------------------------|
E|------------------------------------------------------------------|

You're writing lines...

e|----------------------------------2-----------------------------------------------|
B|-----------5--2h0--2--5--5--2--5-----2-----------5--5--2--2-----------------2--2--|
G|--2--2--2-------------------------------2--2--2--------------2--4--2--2--4--------|
D|----------------------------------------------------------------------------------|
A|----------------------------------------------------------------------------------|
E|----------------------------------------------------------------------------------|

And I try to refrain...

e|-----------------------------------------------------------------------------------------|
B|--------5--5--2--5--------------------------------------5--5--2--0-----0--2--0-----------|
G|--2--2--------------4--6--4--6--6--7--6--4--2--2--2--2--------------2-----------2--1--2--|
D|-----------------------------------------------------------------------------------------|
A|-----------------------------------------------------------------------------------------|
E|-----------------------------------------------------------------------------------------|

I'm sorry but...

e|----------------------------------------------------------------------------|
B|----------------------------------------------------------------------------|
G|--2--6--6--6--6--4--6--7--6--2--2--2--6--6--6--6--4--6--7--6--2--2----------|
D|----------------------------------------------------------------------------|
A|----------------------------------------------------------------------------|
E|----------------------------------------------------------------------------|

You're looking like...

e|----------------------------------------------------------------------------|
B|-----------------------------------------------------2--5--7----------------|
G|--2--6--6--6--6--4--6--7--6--2--2--2--2--2--4--2--2-------------------------|
D|----------------------------------------------------------------------------|
A|----------------------------------------------------------------------------|
E|----------------------------------------------------------------------------|

I'm sorry but...

e|----------------------------------------------------------------------------|
B|----------------------------------------------------------------------------|
G|--2--6--6--6--6--4--6--7--6--2--2--2--6--6--6--6--4--6--7--6--2--2----------|
D|----------------------------------------------------------------------------|
A|----------------------------------------------------------------------------|
E|----------------------------------------------------------------------------|

You're looking like...

e|----------------------------------------------------------------------------|
B|-----------------------------------------------------2--5--7----------------|
G|--2--6--6--6--6--4--6--7--6--2--2--2--2--2--4--2--2-------------------------|
D|----------------------------------------------------------------------------|
A|----------------------------------------------------------------------------|
E|----------------------------------------------------------------------------|
            
Submit corrections


        Is There Somewhere lessons Hard to play? Try these video lessons and learn fast Is There Somewhere lessons
        
↑ Back to top | Tablatures and chords for acoustic guitar and electric guitar, ukulele, drums are parodies/interpretations of the original songs. You may use it for private study, scholarship, research or language learning purposes only