» » »

Halsey - Empty Gold Tabs

Artists:  A B C D E F G H I J K L M N O P Q R S T U V W X Y Z # 

Empty Gold Tabs

(ver. 1) Click to play this song!
Halsey
 Rating:
4.3/5 (18 votes)

 Empty Gold  lessons Tabs too difficult? Try these video lessons and learn fast
 
                Intro 
Let ring
e|---------------------------------------------------------------------------|
B|---9---9---9---9---9---9---9---9-------------------------------------------|
G|-6---6---6---6---6---6---6---6---------------------------------------------|
D|---------------------------------------------------------------------------|
A|---------------------------------------------------------------------------|
E|---------------------------------------------------------------------------|

Verse 1
e|----------------------------------4---4---4---4---4---4---4---4------------|
B|---9---9---9---9---9--9---9---9--------------------------------------------|
G|-6---6---6---6---6--6---6---6---4---4---4---4---3---3---3---3--------------| x2
D|---------------------------------------------------------------------------|
A|---------------------------------------------------------------------------|
E|---------------------------------------------------------------------------|

Prechorus
e|---------------------------------------------------------------------------|
B|---------------------------------------------------------------------------|
G|-----4-4--6--6-6~----------------------------------------------------------| x2
D|-7~--4-4--6--6-6~----------------------------------------------------------|
A|-7~--2-2--4--4-4~----------------------------------------------------------|
E|-5~------------------------------------------------------------------------|

Chorus
Lead
e|-9~-7h9-12-11-9/7----------------------------------------------------------|
B|---------------------------------------------------------------------------|
G|---------------------------------------------------------------------------| x2
D|---------------------------------------------------------------------------|
A|---------------------------------------------------------------------------|
E|---------------------------------------------------------------------------|
Rhythm
e|---------------------------------------------------------------------------|
B|---------------------------------------------------------------------------|
G|-6~---4~-------------6~---4~-----------------------------------------------|
D|-6~---4~---2~---4~---6~---4~---2~------------------------------------------|
A|-4~---2~---2~---4~---4~---2~---2~------------------------------------------|
E|-----------0~---2~-------------0~------------------------------------------|

Postchorus
e|---------------------------------------------------------------------------|
B|---------------------------------------------------------------------------|
G|-6-6-6-6-6-6-6-6-6-6-6-6---------6-6-6-6-6-6-6-6-6-6-6-6-------------------|
D|-6-6-6-6-6-6-6-6-6-6-6-6---------6-6-6-6-6-6-6-6-6-6-6-6-------------------|
A|-4-4-4-4-4-4-4-4-4-4-4-4-7-7-7-7-4-4-4-4-4-4-4-4-4-4-4-4-2-2-2-2-----------|
E|---------------------------------------------------------------------------|

Verse 2
e|----------------------------------4---4---4---4---4---4---4---4------------|
B|---9---9---9---9---9--9---9---9--------------------------------------------|
G|-6---6---6---6---6--6---6---6---4---4---4---4---3---3---3---3--------------| x2
D|---------------------------------------------------------------------------|
A|---------------------------------------------------------------------------|
E|---------------------------------------------------------------------------|

Prechorus
e|---------------------------------------------------------------------------|
B|---------------------------------------------------------------------------|
G|-----4-4--6--6-6~----------------------------------------------------------| x2
D|-7~--4-4--6--6-6~----------------------------------------------------------|
A|-7~--2-2--4--4-4~----------------------------------------------------------|
E|-5~------------------------------------------------------------------------|

Chorus
Lead
e|-9~-7h9-12-11-9/7----------------------------------------------------------|
B|---------------------------------------------------------------------------|
G|---------------------------------------------------------------------------| x2
D|---------------------------------------------------------------------------|
A|---------------------------------------------------------------------------|
E|---------------------------------------------------------------------------|
Rhythm
e|---------------------------------------------------------------------------|
B|---------------------------------------------------------------------------|
G|-6~---4~-------------6~---4~-----------------------------------------------|
D|-6~---4~---2~---4~---6~---4~---2~------------------------------------------|
A|-4~---2~---2~---4~---4~---2~---2~------------------------------------------|
E|-----------0~---2~-------------0~------------------------------------------|

Postchorus
e|---------------------------------------------------------------------------|
B|---------------------------------------------------------------------------|
G|-6-6-6-6-6-6-6-6-6-6-6-6---------6-6-6-6-6-6-6-6-6-6-6-6-------------------| x2
D|-6-6-6-6-6-6-6-6-6-6-6-6---------6-6-6-6-6-6-6-6-6-6-6-6-------------------|
A|-4-4-4-4-4-4-4-4-4-4-4-4-7-7-7-7-4-4-4-4-4-4-4-4-4-4-4-4-2-2-2-2-----------|
E|---------------------------------------------------------------------------|

Bridge (correct notes but you would need to tune down to Db to sound like the song)
e|---------------------------------------------------------------------------|
B|---------------------------------------------------------------------------|
G|---------------------------------------------------------------------------| x4
D|---------------------------------------------------------------------------|
A|-4~---7~---0~--------------------------------------------------------------|
E|---------------------------------------------------------------------------|

Chorus
Lead
e|-9~-7h9-12-11-9/7----------------------------------------------------------|
B|---------------------------------------------------------------------------|
G|---------------------------------------------------------------------------| x2
D|---------------------------------------------------------------------------|
A|---------------------------------------------------------------------------|
E|---------------------------------------------------------------------------|\
Rhythm                                                                         x3 (fourth time through on rhythm
e|---------------------------------------------------------------------------|/    don't play the second 7s)
B|---------------------------------------------------------------------------|
G|-6~---4~-------------6~---4~-----------------------------------------------| 
D|-6~---4~---2~---7~---6~---4~---2~---7~-------------------------------------|
A|-4~---2~---2~---7~---4~---2~---2~---7~-------------------------------------|
E|-----------0~---5~-------------0~---5~-------------------------------------|

Final part of chorus
Lead
e|-9~-7h9-12-11-9/7----------------------------------------------------------|
B|---------------------------------------------------------------------------|
G|---------------------------------------------------------------------------| x2
D|---------------------------------------------------------------------------|
A|---------------------------------------------------------------------------|
E|---------------------------------------------------------------------------|
Lead
e|---------------------------------------------------------------------------|
B|---------------------------------------------------------------------------|
G|-6~---4~---6~--------------------------------------------------------------| 
D|-6~---4~---6~--------------------------------------------------------------|
A|-4~---2~---4~--------------------------------------------------------------|
E|---------------------------------------------------------------------------|

Postchorus/Outro
e|---------------------------------------------------------------------------|
B|---------------------------------------------------------------------------|
G|-6-6-6-6-6-6-6-6-6-6-6-6---------6-6-6-6-6-6-6-6-6-6-6-6-------------------| x3
D|-6-6-6-6-6-6-6-6-6-6-6-6---------6-6-6-6-6-6-6-6-6-6-6-6-------------------|
A|-4-4-4-4-4-4-4-4-4-4-4-4-7-7-7-7-4-4-4-4-4-4-4-4-4-4-4-4-2-2-2-2-----------|
E|---------------------------------------------------------------------------|

            
Submit corrections


        Empty Gold  lessons Hard to play? Try these video lessons and learn fast Empty Gold  lessons
        
↑ Back to top | Tablatures and chords for acoustic guitar and electric guitar, ukulele, drums are parodies/interpretations of the original songs. You may use it for private study, scholarship, research or language learning purposes only