» » »

Halsey - Drive Tabs

Artists:  A B C D E F G H I J K L M N O P Q R S T U V W X Y Z # 

Drive Tabs

(ver. 1) Click to play this song!
Halsey
 Rating:
2.6/5 (30 votes)

 Drive  lessons Tabs too difficult? Try these video lessons and learn fast
 
                G/F# : {2 0 0 2 3 3}                  


e|----12---10---10---12-------------12---10---10---12------------------------|
B|-----------------------13-12---0---------------------13-12-----------------|
G|---------------------------------------------------------------------------|
D|---------------------------------------------------------------------------|
A|---------------------------------------------------------------------------|
E|---------------------------------------------------------------------------|

e|-----0-----0---0---0-----0----12---10---10---12------------12---10---10-12-|
B|----10----12--13--15----13----10-----------------13--12--0-----------------|
G|---------------------------------------------------------------------------|
D|---------------------------------------------------------------------------|
A|---------------------------------------------------------------------------|
E|---------------------------------------------------------------------------|

e|---------------------------------------------------------------------------|
B|----13-12------------------------------------------------------------------|
G|---------------------------------------------------------------------------|
D|---------------------------------------------------------------------------|
A|---------------------------------------------------------------------------|
E|---------------------------------------------------------------------------|

e|-----0-----0---0---0-----0----12---10---10---12------------12---10---10-12-|
B|----10----12--13--15----13----10-----------------13--12--0-----------------|
G|---------------------------------------------------------------------------|
D|---------------------------------------------------------------------------|
A|---------------------------------------------------------------------------|
E|---------------------------------------------------------------------------|

e|---------------------------------------------------------------------------|
B|----13-12------------------------------------------------------------------|
G|---------------------------------------------------------------------------|
D|---------------------------------------------------------------------------|
A|---------------------------------------------------------------------------|
E|---------------------------------------------------------------------------|
                                                                                 

              Em*
All we do is drive
              C*                               G*
All we do is think about the feelings that we hide
                       C*                  Em*
All we do is sit in silence waiting for a sign
                  C*
Sick and full of pride
               G*               G* G/F#*
All we do is drive

       Em*                      C*
And California never felt like home to me
        G*                      C*
And California never felt like home
        Em*                     C*
And California never felt like home to me
        G*                            G/F#*
Until I had you on the open road and now we're singing

  Em*   C*    G*    C*
Aaaah,Aaaah,Aaaah,Aaaah

Em*   C*    G*    C*
Aaaah,Aaaah,Aaaah,Aaaah

e|--12-12-12-10-10-10-10-10-12--0--0--0--0-0---------------------------------|
B|--0--0--0--0--0--0--0--0--0--13-12-12-12-0---------------------------------|
G|---------------------------------------------------------------------------|
D|---------------------------------------------------------------------------|
A|---------------------------------------------------------------------------|
E|---------------------------------------------------------------------------|

e|--12-12-12-10-10-10-10-10-12--0--0--0--0-0---------------------------------|
B|--0--0--0--0--0--0--0--0--0--13-12-12-12-0---------------------------------|
G|---------------------------------------------------------------------------|
D|---------------------------------------------------------------------------|
A|---------------------------------------------------------------------------|
E|---------------------------------------------------------------------------|


Em           C
Your laugh, echoes down the hallway

G                             C                  
Carves into my hollow chest, spreads over the emptiness

Em             C    G
It's bliss

Em         C             
It's so simple but we can't stay

G                     C                          Em~      
Over an*lyze again, would it really kill you if we kissed

C~     G~    Em~


              Em
All we do is drive
              C                               G
All we do is think about the feelings that we hide
                       C                  Em
All we do is sit in silence waiting for a sign
                  C
Sick and full of pride
               G               G G/F#
All we do is drive

       Em                      C
And California never felt like home to me
        G                      C
And California never felt like home
        Em                      C
And California never felt like home to me
        G                           G/F#
Until I had you on the open road and now we're singing

  Em    C    G     C
Aaaah,Aaaah,Aaaah,Aaaah

  Em    C     G     C
Aaaah,Aaaah,Aaaah,Aaaah





e|--12-12-12-10-10-10-10-10-12--0--0--0--0-0---------------------------------|
B|--0--0--0--0--0--0--0--0--0--13-12-12-12-0---------------------------------|
G|---------------------------------------------------------------------------|
D|---------------------------------------------------------------------------|
A|---------------------------------------------------------------------------|
E|---------------------------------------------------------------------------|

e|--12-12-12-10-10-10-10-10-12--0--0--0--0--0~-------------------------------|
B|--0--0--0--0--0--0--0--0--0--13-12-12-12-10~-------------------------------|
G|---------------------------------------------------------------------------|
D|---------------------------------------------------------------------------|
A|---------------------------------------------------------------------------|
E|---------------------------------------------------------------------------|            
Submit corrections


        Drive  lessons Hard to play? Try these video lessons and learn fast Drive  lessons
        
↑ Back to top | Tablatures and chords for acoustic guitar and electric guitar, ukulele, drums are parodies/interpretations of the original songs. You may use it for private study, scholarship, research or language learning purposes only