» » »

Halsey - Dont Let Me Go Tabs

Artists:  A B C D E F G H I J K L M N O P Q R S T U V W X Y Z # 

Dont Let Me Go Tabs

(ver. 1) Click to play this song!
Halsey
 Rating:
2.9/5 (29 votes)

 Dont Let Me Go  lessons Tabs too difficult? Try these video lessons and learn fast
 
                Tuning: Standard

Capo: II
   G      D     C
e|--------------------|
B|--------------------|
G|--------0-----0-----|
D|--0-----4-----2-----|
A|--2-----5-----3-----|
E|--3-----------------|


Intro
e|---------------------------------------------------------------------------|
B|---------------------------------------------------------------------------|
G|----------------------0-------0--------0-----0------0-----0----------------|
D|-------0-----0------4--------4--------2-----2------2-----2-----------------|x2
A|-----2-----2------5--------5--------3-----3------3-----3-------------------|
E|---3-----3-----------------------------------------------------------------|

Verse 1
e|---------------------------------------------------------------------------|
B|---------------------------------------------------------------------------|
G|----------------------0-------0--------0-----0------0-----0----------------|
D|-------0-----0------4--------4--------2-----2------2-----2-----------------|x3
A|-----2-----2------5--------5--------3-----3------3-----3-------------------|
E|---3-----3-----------------------------------------------------------------|
  Now you were standing there right in front of me
  I hold on, it's getting harder to breathe
  All of a sudden these lights are blinding me

e|---------------------------------------------------------------------------|
B|---------------------------------------------------------------------------|
G|----------------------0-------0-----0--------------------------------------|
D|-------0-----0------4--------4------2--------------------------------------|
A|-----2-----2------5--------5--------3--------------------------------------|
E|---3-----3-----------------------------------------------------------------|
  I never noticed how bright they would be

e|---------------------------------------------------------------------------|
B|---------------------------------------------------------------------------|
G|----------------------0-------0--------0-----0------0-----0----------------|
D|-------0-----0------4--------4--------2-----2------2-----2-----------------|x3
A|-----2-----2------5--------5--------3-----3------3-----3-------------------|
E|---3-----3-----------------------------------------------------------------|
  I saw in the corner there is a photograph
  No doubt in my mind it's a picture of you
  It lies there alone in its bed of broken glass

e|---------------------------------------------------------------------------|
B|---------------------------------------------------------------------------|
G|------------------0-----0--------------------------------------------------|
D|-------0-----0----4-----2--------------------------------------------------|
A|-----2-----2------5-----3--------------------------------------------------|
E|---3-----3-----------------------------------------------------------------|
  This bed was never made for two

Prechorus
e|---------------------------------------------------------------------------|
B|---------------------------------------------------------------------------|
G|-------------------0----0-----------------------0-----0--------------------|
D|--------------0----4----2------------------0----4-----2--------------------|
A|--------------2----5----3------------------2----5-----3--------------------|
E|--------------3----------------------------3-------------------------------|
  I'll keep my eyes wide open, I'll keep my arms wide open
  
Chorus
G      D     C
Don't let me
C           
Don't let me
G      D     C 
Don't let me go
                              G
Cause I'm tired of feeling alone
G      D     C
Don't let me
C            
Don't let me
G      D     C 
Don't let me go
                              G
'Cause I'm tired of feeling alone

Interlude
e|---------------------------------------------------------------------------|
B|---------------------------------------------------------------------------|
G|----------------------0-------0--------0-----0------0-----0----------------|
D|-------0-----0------4--------4--------2-----2------2-----2-----------------|x2
A|-----2-----2------5--------5--------3-----3------3-----3-------------------|
E|---3-----3-----------------------------------------------------------------|

Verse 2
e|---------------------------------------------------------------------------|
B|---------------------------------------------------------------------------|
G|----------------------0-------0--------0-----0------0-----0----------------|
D|-------0-----0------4--------4--------2-----2------2-----2-----------------|x3
A|-----2-----2------5--------5--------3-----3------3-----3-------------------|
E|---3-----3-----------------------------------------------------------------|
  I promised one day that I'd bring you back a star
  I caught one and it burned a hole in my hand, oh
  Seems like these days I watch you from afar

e|---------------------------------------------------------------------------|
B|---------------------------------------------------------------------------|
G|------------------0-------0------------------------------------------------|
D|-------0-----0----4-------2------------------------------------------------|
A|-----2-----2------5-------3------------------------------------------------|
E|---3-----3-----------------------------------------------------------------|
  Just trying to make you understand

Prechorus
e|---------------------------------------------------------------------------|
B|---------------------------------------------------------------------------|
G|-------------------0----0-----------------------0-----0--------------------|
D|--------------0----4----2------------------0----4-----2--------------------|
A|--------------2----5----3------------------2----5-----3--------------------|
E|--------------3----------------------------3-------------------------------|
  I'll keep my eyes wide open, I'll keep my arms wide open
  

Chorus
G      D     C
Don't let me
C           
Don't let me
G      D     C 
Don't let me go
                              G
Cause I'm tired of feeling alone
G      D     C
Don't let me
C            
Don't let me
G      D     C 
Don't let me go
                              G
'Cause I'm tired of feeling alone

Interlude
e|---------------------------------------------------------------------------|
B|---------------------------------------------------------------------------|
G|----------------------0-------0--------0-----0------0-----0----------------|
D|-------0-----0------4--------4--------2-----2------2-----2-----------------|x2
A|-----2-----2------5--------5--------3-----3------3-----3-------------------|
E|---3-----3-----------------------------------------------------------------|

Chorus
e|---------------------------------------------------------------------------|
B|---------------------------------------------------------------------------|
G|----------------------0-------0--------0-----0------0-----0----------------|
D|-------0-----0------4--------4--------2-----2------2-----2-----------------|x2
A|-----2-----2------5--------5--------3-----3------3-----3-------------------|
E|---3-----3-----------------------------------------------------------------|
   Don't let me, don't let me
   Don't let me go

G*      D*     C*
Don't let me
           
Don't let me
G*      D*    C* 
Don't let me go
                              G*
'Cause I'm tired of sleeping alone            
Submit corrections


        Dont Let Me Go  lessons Hard to play? Try these video lessons and learn fast Dont Let Me Go  lessons
        
↑ Back to top | Tablatures and chords for acoustic guitar and electric guitar, ukulele, drums are parodies/interpretations of the original songs. You may use it for private study, scholarship, research or language learning purposes only