» » »

Halsey - Control Tabs

Artists:  A B C D E F G H I J K L M N O P Q R S T U V W X Y Z # 

Control Tabs

(ver. 1) Click to play this song!
Halsey
 Rating:
3.5/5 (24 votes)

 Control  lessons Tabs too difficult? Try these video lessons and learn fast
 
                
Intro

Guitar 1 and/or 2: (letting each note ring)

e|-12----13-19---------------------------------------------------------------|
B|----12---------------------------------------------------------------------|
G|---------------------------------------------------------------------------| x4, the 4th time through
D|---------------------------------------------------------------------------|     don't play the 13-19
A|---------------------------------------------------------------------------|
E|---------------------------------------------------------------------------|

--

Verse 1

Guitar 1 and/or 2: (softly in background)

e|-14-12---------------------------------------------------------------------|
B|-------12------------------------------------------------------------------|
G|---------------------------------------------------------------------------| until pre-chorus
D|---------------------------------------------------------------------------|    
A|---------------------------------------------------------------------------|
E|---------------------------------------------------------------------------|

--

Bridge is same as intro
            
Submit corrections


        Control  lessons Hard to play? Try these video lessons and learn fast Control  lessons
        
↑ Back to top | Tablatures and chords for acoustic guitar and electric guitar, ukulele, drums are parodies/interpretations of the original songs. You may use it for private study, scholarship, research or language learning purposes only