» » »

Halsey - Colors Tabs

Artists:  A B C D E F G H I J K L M N O P Q R S T U V W X Y Z # 

Colors Tabs

(ver. 1) Click to play this song!
Halsey
 Rating:
4.4/5 (17 votes)

 Colors  lessons Tabs too difficult? Try these video lessons and learn fast
 
                Verse 1
"Your little brother..."

D DD DDDU  
e|---3------3------3------3---|
B|---3------3------3------3---|
G|---0------0------0------0---|
D|---2------0------0------0---|
A|---2------3------2------0---|
E|---0------0------3------2---|

Pre-chorus
"You're dripping like..."

D DD DDDU  
e|---3------3------3------3---|
B|---3------3------3------3---|
G|---0------0------0------0---|
D|---2------0------0------0---|
A|---2------3------2------0---|
E|---0------0------3------2---|

Chorus
"Everything is blue..."

D DD DDDU  
e|---3------3------3------3---|
B|---3------3------3------3---|
G|---0------0------0------0---|
D|---2------0------0------0---|
A|---2------3------2------0---|
E|---0------0------3------2---|


"Everything is grey..."

D D UUDDDU
e|---3------3------3------3---|
B|---3------3------3------3---|
G|---0------0------0------0---|
D|---2------0------0------0---|
A|---2------3------2------0---|
E|---0------0------3------2---|


Verse 2
"You were a vision..."

D DD DDDU 
e|---3------3------3------3---|
B|---3------3------3------3---|
G|---0------0------0------0---|
D|---2------0------0------0---|
A|---2------3------2------0---|
E|---0------0------3------2---|


Pre-chorus
"You're dripping like..."

D DD DDDU  
e|---3------3------3------3---|
B|---3------3------3------3---|
G|---0------0------0------0---|
D|---2------0------0------0---|
A|---2------3------2------0---|
E|---0------0------3------2---|

Chorus
"Everything is blue..."

D D UUDDDU
e|---3------3------3------3---|
B|---3------3------3------3---|
G|---0------0------0------0---|
D|---2------0------0------0---|
A|---2------3------2------0---|
E|---0------0------3------2---|


"Everything is grey..."

D D UUDDDU
e|---3------3------3------3---|
B|---3------3------3------3---|
G|---0------0------0------0---|
D|---2------0------0------0---|
A|---2------3------2------0---|
E|---0------0------3------2---|

Bridge
"You were red..."

D D D D (strum lightly)
e|---3------3------3------3---|
B|---3------3------3------3---|
G|---0------0------0------0---|
D|---2------0------0------0---|
A|---2------3------2------0---|
E|---0------0------3------2---|


Chorus
"Everything is blue..."

D D UUDDDU (strum lightly)
e|---3------3------3------3---|
B|---3------3------3------3---|
G|---0------0------0------0---|
D|---2------0------0------0---|
A|---2------3------2------0---|
E|---0------0------3------2---|


"Everything is grey..."

D D UUDDDU
e|---3------3------3------3---|
B|---3------3------3------3---|
G|---0------0------0------0---|
D|---2------0------0------0---|
A|---2------3------2------0---|
E|---0------0------3------2---|

Outro
"Everything is blue..."

D D UUDDDU
e|---3------3------3------3---|
B|---3------3------3------3---|
G|---0------0------0------0---|
D|---2------0------0------0---|
A|---2------3------2------0---|
E|---0------0------3------2---|            
Submit corrections


        Colors  lessons Hard to play? Try these video lessons and learn fast Colors  lessons
        
↑ Back to top | Tablatures and chords for acoustic guitar and electric guitar, ukulele, drums are parodies/interpretations of the original songs. You may use it for private study, scholarship, research or language learning purposes only