Home » H » Halifax »

Halifax - Nightmare Bass

Artists:  A B C D E F G H I J K L M N O P Q R S T U V W X Y Z # 

Nightmare Bass

(ver. 1) Click to play this song!
Halifax
Main Riff
G|-------------------------------------------------------------------------------------------------|
D|-------------------------------------------------------------------------------------------------|
A|-5-----------------------5----------------------5------------------------------------------------|
D|----0----7--8--7--10--7-----0----7--8--7--10-------0----7--8--7--10--7--8-8-8-8-8-8-8-8----------|

Verse x 2 (only play the slide on the first time)
G|----------------------------------------------------------------------------------------------------|
D|-------------------------------------------3--2---------------------2-3-----------------3--2--------|
A|-------------------------------------------------5--3-----------------------------------------5--3--|
D|-0/12----12--12--000----000--8----10--8----------------3----3--3-----------2----2--2----------------|

Pre-Chorus
G|-------------------------------------------------------------------------|
D|-------------------------------------------------------------------------|
A|-1----1--1----3--3----3--3----3--3--3--5----3----3--3--3--5----5----3----| x 2
D|-------------------------------------------------------------------------|

G|-------------------------------------------------------------|
D|-------------------------------------------------------------|
A|-1----1--1----3--3----3--3----0--0----0--0----1--1----1-3----|
D|-------------------------------------------------------------|

Chorus
G|------------------------------------------------------------------------|
D|------------------------------------------------------------------------|
A|--------------------1----x-x----x-x---------------------3-3-3-3-3-3-3-3-| x 2
D|-0----x-x----x-x------------------------3-3-3-3-3-3-3-3-----------------|

G|-----------------------------------------------------------------|
D|-----------------------------------------------------------------|
A|-----------------1-1-1-1-1-1-1-1-----------------3-3-3-3-3-3-3-3-| x 2
D|-0-0-0-0-0-0-0-0-----------------3-3-3-3-3-3-3-3-----------------|

Post-Chorus
G|--------------------|
D|------------3--2----|
A|-1~-----------------|
D|--------------------|

Shortened Main Riff
G|------------------------------------------------|
D|------------------------------------------------|
A|-5-----------------------5----------------------|
D|----0----7--8--7--10--7-----0----7--8--7--10----|

Verse (same as before)

Pre-Chorus (same as before)

Chorus (same as before)

Bridge
G|-------------------------------------|
D|-------------------------------------|
A|-1~----------------3~----------------|
D|---------------------------------15\-|

G|-----------------------------------------------------------------------------------------------------|
D|-----------------------------------------------------------------------------------------------------|
A|-------------------------------------------------------------------------1--1--1--1--1-3-3-3-3-3-3-3-|
D|-3--3--3--3--3--3--3--3--2--2--2--2--2--2--2--2--0--0--0--0--0--0--0--0------------------------------|


G|-----------------------------------------------------------------------------------------------------|
D|-----------------------------------------------------------------------------------------------------|
A|-------------------------------------------------------------------------1--1--1--1--1-3-3-3-3-3-3-3-|
D|-3--3--3--3--3--3--3--3--2--2--2--2--2--2--x-x---0--0--0--0--0--0--0--0------------------------------|

Final Chorus
G|------------------------------------------------------------------------|
D|------------------------------------------------------------------------|
A|--------------------1-----------------------------------3-3-3-3-3-3-3-3-| 
D|-12\0----------0------------------------3-3-3-3-3-3-3-3-----------------|

G|-----------------------------------------------------------------|
D|-----------------------------------------------------------------|
A|-----------------1-1-1-1-1-1-1-1-----------------3-3-3-3-3-3-3-3-| x 3
D|-0-0-0-0-0-0-0-0-----------------3-3-3-3-3-3-3-3-----------------|

Outro
G|--------------------|
D|------------3--2----|
A|-1~-----------------|
D|--------------------|

G|-------------------------------------------------------------|
D|-------------------------------------------------------------|
A|-5-----------------------5------------------------5----------|
D|----0----7--8--7--10--7-----0----7--8--7--10-8-7-------------|            
Submit corrections

↑ Back to top | Tablatures and chords for acoustic guitar and electric guitar, ukulele, drums are parodies/interpretations of the original songs. You may use it for private study, scholarship, research or language learning purposes only