» » »

Hale - Blue Sky Tabs

Artists:  A B C D E F G H I J K L M N O P Q R S T U V W X Y Z # 

Blue Sky Tabs

(ver. 1) Click to play this song!
Hale
 Rating:
3.5/5 (11 votes)


 Blue Sky lessons Tabs too difficult? Try these video lessons and learn fast
 
                band/Artist: Hale
Song title: Blue sky

standard tuning (EADGBe)


intro:
guitar 1
e|------------------------|
B|------------------------|
G|-4----3----2------------|
D|-4----4----2----6-------| (2x)
A|-2----2----0----6-------| 
E|----------------4-------|

guitar 2
e|--------------------------------------|
B|--------------------------------------|
G|--------------------------------------|  (2x)
D|-2/4--2p1-2p1----2p1-2p1---2p1-2/4-4--|
A|--------------2----------2------------| 
E|--------------------------------------|

verse 1                            before the 1st verse ends
e|------------------------|    e|---7-7-7-|
B|------------------------|   
G|-4----3----2------------|
D|-4----4----2----6-------| 
A|-2----2----0----6-------| 
E|----------------4-------|

Chorus
guitar 1

e|------------------------|
B|------------------------|
G|-4----3----2------------|
D|-4----4----2----6-------| 
A|-2----2----0----6-------| 
E|----------------4-------|

guitar 2

e|-7---7---7---7---7-----6h7-6---6h7-6---6---7---7---7---7---7----|
B|---7---7---7---7---7---------7-------7-------7---7---7---7---7--|
G|----------------------------------------------------------------|
D|----------------------------------------------------------------| 
A|----------------------------------------------------------------| 
E|----------------------------------------------------------------|

e|-9---9----7---7----|
B|---7---7-----7---7-|
G|-------------------|
D|-------------------| 
A|-------------------| 
E|-------------------|

verse 2                      
                        
e|------------------------|         e|---------|
B|------------------------|         B|-12------|
G|-4----3----2------------|         G|---11----|
D|-4----4----2----6-------|         D|------9--|
A|-2----2----0----6-------|         A|---------|
E|----------------4-------|         E|---------|


e|------------------------|
B|-4-5-4---(6x)---4-5---2-|
G|-------4------------4---|
D|------------------------| 
A|------------------------| 
E|------------------------|

Chorus

e|------------------------|
B|------------------------|
G|-4----3----2------------|
D|-4----4----2----6-------| 
A|-2----2----0----6-------| 
E|----------------4-------|

verse 3
guitar 1

e|------------------------|
B|------------------------|
G|-4----3----2------------|
D|-4----4----2----6-------| 
A|-2----2----0----6-------| 
E|----------------4-------|

guitar 2

e|----------------------------------------------------|
B|-4-5-4---(4x)---4-----2-2-----2-2-----2-2-----2-2---|
G|-------4----------4-4-----4-4-----4-4-----4-4-------| 
D|----------------------------------------------------| 
A|----------------------------------------------------| 
E|----------------------------------------------------|

e|--------------------------------------------2---2-|
B|-4-5-4---(4x)---4-----2-2-----2-2-----2-2---------|
G|-------4----------4-4-----4-4-----4-4-----4---4---| 
D|--------------------------------------------------| 
A|--------------------------------------------------| 
E|--------------------------------------------------|

Chorus

e|------------------------|
B|------------------------|
G|-4----3----2------------|
D|-4----4----2----6-------| 
A|-2----2----0----6-------| 
E|----------------4-------|

Bridge
guitar 1                         guitar 2 w/ distortion

e|-------------|           e|--------------|
B|-------------|           B|--------------|
G|---------4---|           G|--------------|
D|-2---4---4---| (2x)      D|--9--------9\-|   (2x)
A|-2---4---2---|           A|--9--(6x)--9\-|
E|-0---2---x---|           E|--7--------7\-|

e|------------------------------|
B|------------------------------|
G|-------4--3-------------------|
D|-2--4--4--4--6--4--2------4---| 
A|-2--4--2--2--6--4--2------4---|
E|-0--2--------4--2--0------2---|

acoustic part(chorus chords)

guitar 1
e|------------------------|
B|------------------------|
G|-4----3----2------------|
D|-4----4----2----6-------| 
A|-2----2----0----6-------| 
E|----------------4-------|

guitar 2
e|-7---7---7---7---7----6h7-6---6h7-6---6---7---7---7---7---7---9--9---7-7-|
B|---7---7---7---7---7--------7-------7-------7---7---7---7---7--7---7-----|
G|-------------------------------------------------------------------------|
D|-------------------------------------------------------------------------|
A|-------------------------------------------------------------------------|
E|-------------------------------------------------------------------------|

Last chorus
guitar 1

e|------------------------|
B|------------------------|
G|-4----3----2------------|
D|-4----4----2----6-------| 
A|-2----2----0----6-------| 
E|----------------4-------|

guitar 2

e|-----------|
B|-/5-4------|
G|------6-4--|  (9x)
D|-----------| 
A|-----------| 
E|-----------|


Para to sa mga kabanda ko!! \m/
mataas pangarap nmin hintayin nu kmi!!!! bibigyan namin kayo ng mga2ndang knta balang araw!!!
para rn to sa barkada ko!!!
            
Submit corrections



        Blue Sky lessons Hard to play? Try these video lessons and learn fast Blue Sky lessons
        
↑ Back to top | Tablatures and chords for acoustic guitar and electric guitar, ukulele, drums are parodies/interpretations of the original songs. You may use it for private study, scholarship, research or language learning purposes only