» » »

Hail The Sun - Burn Nice And Slow Bass

Artists:  A B C D E F G H I J K L M N O P Q R S T U V W X Y Z # 

Burn Nice And Slow Bass

(ver. 1) Click to play this song!
Hail The Sun
 Rating:
4.3/5 (20 votes)

 Burn Nice And Slow  lessons Tabs too difficult? Try these video lessons and learn fast
 
                [Intro][0:00-0:17]

G|---------------------------------------------------------------------------|
D|---------------------------------------------------------------------------|
A|-2222--4-4--7-7--0--4-4-------0---4-4--7-7--0------------------------------|
E|-------------------------0-0------------------2p0-2h4p2p0-2p0-2p0-2ph4p2h4-|

G|---------------------------------------------------------------------------|
D|---------------------------------------------------------------------------|
A|------------4-4--7-7--0--4-4------0--4-4--7-7--0---------------------------|
E|-----7888---------------------0-0-------------------22--224---7888---------|


[Verse][0:21-0:50]

G|---------------------------------------------------------------------------|
D|---------------------------------------------------------------------------|
A|---------------------------------------------------------------------------|
E|-5555--5555--5555--2222--2222--777--5555--5555-5555--2222--222---2/5-5-5-5-|


G|---------------------------------------------------------------------------|
D|---------------------------------------------------------------------------|
A|---------------------------------------------------------------------------|
E|--55-4-2-2-2--2/777-5-5-5-5--5--2~-4~-5~--2~/5~-9~--7\2~-4~-5~\2~--4~--2~---|

Break [0:55-1:12]

G|---------------------------------------------------------------------------|
D|---------------------------------------------------------------------------|
A|------1/2--4~-----3--3-----1/2--4~----3--4--3-3-3---3-3---3-3---3-3--3(x16)|
E|--2~----------2~-------2~----------2~-------------------------------------|


(1:35)
G|---------------------------------------------------------------------------|
D|-----------------------------------------2--4------------------------------|
A|--4\2---4---4\2----4-4-4-4-2-3--4-4-4-4--------4-4-4-4--2--3---------------|
E|---------------------------------------------------------------------------|

G|------------------------------------------------4-6--------------6-7-------|
D|------------2--4---------------------2--4--6-6--------2--4--6-6------------|
A|---4-4-4-4--------4-4-4-4--2--3---4-----------------4----------------------|
E|---------------------------------------------------------------------------|

G|------------------4-6------------------------------------------------------|
D|-----2--4---6-6------------2-----------------------------------------------|
A|---4--------------------4----4---------------------------------------------|
E|---------------------------------4-4-4-4-4-4-4-4---5555--5555--5555-2222---|

[2:00-2:27]
G|---------------------------------------------------------------------------|
D|---------------------------------------------------------------------------|
A|---------------------------------------------------------------------------|
E|--2222--7777---5555--5555---5555-2222--222--5-5-5-5-5-4--2-2-2-2/777-------|

G|---------------------------------------------------------------------------|
D|---------------------------------------------------------------------------|
A|---------------------------------------------------------------------------|
E|--5-5-5-5-5--4--2~--4~--5~--2~/5~/9~---7---2~--4~---5~---2~/4~----2~---2---|

mini break [2:31-2:35]

G|---------------------------------------------------------------------------|
D|------6----9-------9---13--------------------------------------------------|
A|--7---4----7----7--7---11--(x4)--------------------------------------------|
E|--5-------------5---------------5555--5555-5555---2222--2222---7777---5555-|


G|---------------------------------------------------------------------------|
D|---------------------------------------------------------------------------|
A|---------------------------------------------------------------------------|
E|--5555--5555---2222--222---5--5--5--5--5-4-2--2--2--2--777--5-5-5-5--------|

G|---------------------------------------------------------------------------|
D|---------------------------------------------------------------------------|
A|---------------------------------------------------------------------------|
E|---5--4---2-2-2-2/7--77--5-5-5-5-5--4--2~-4~--5~--2~/5~/9~--7---2~--4~--5~-|

G|---------------------------------------------------------------------------|
D|---------------------------------------------------------------------------|
A|------------------(x5)-----------------------------------------------------|
E|---2~--4~---2~-------------------------------------------------------------|            
Submit corrections


        Burn Nice And Slow  lessons Hard to play? Try these video lessons and learn fast Burn Nice And Slow  lessons
        
↑ Back to top | Tablatures and chords for acoustic guitar and electric guitar, ukulele, drums are parodies/interpretations of the original songs. You may use it for private study, scholarship, research or language learning purposes only