Home » G » Gwen Stefani »

Gwen Stefani - Sweet Escape Tabs

Artists:  A B C D E F G H I J K L M N O P Q R S T U V W X Y Z # 

Sweet Escape Tabs

(ver. 1) Click to play this song!
Gwen Stefani
Gwen Stefani
The Sweet Escape

its pretty easy and just repeats itself, just listen to the song for timing. its really 
that hard. and  this tab is dead on. thank you.

Standard Tuning
-Intro and Verses-

                                           Chords during verse
e---6-----4----3-----2------------     -------------------|
b---6-----6----4-----2------------     -------------------|
g---7-----6----3-----3------------     -------------------|
d---------------------------------     ----8---6---5---4--|
a---------------------------------     ----8---6---5---4--|
e---------------------------------     ----6---4---3---2--|


-Chorus-

e---------------------------------------------|
b---------------------------------------------|
g----6----6-----------------------------------|
d----6----6----8-----3----4----6--------------|
a----4----3----8-----3----4----6--------------|
e----4----3----6-----1----2----4--------------|
            
Submit corrections

↑ Back to top | Tablatures and chords for acoustic guitar and electric guitar, ukulele, drums are parodies/interpretations of the original songs. You may use it for private study, scholarship, research or language learning purposes only