» » »

Gustavo Santaolalla - The Last Of Us You And Me Tabs

Artists:  A B C D E F G H I J K L M N O P Q R S T U V W X Y Z # 

The Last Of Us You And Me Tabs

(ver. 1) Click to play this song!
Gustavo Santaolalla
 Rating:
3.7/5 (25 votes)

 The Last Of Us You And Me  lessons Tabs too difficult? Try these video lessons and learn fast
 
                Intro:

e|------3---5----3------------------------3---5----7-------------------------|
B|--------5---7--5--------------------------5---7--8-------------------------|
G|---------------------------------------------------------------------------|
D|---------------------------------------------------------------------------|
A|---------------------------------------------------------------------------|
E|------0--------0------------------------0--------0-------------------------|

e|------3---5----3------------------------3--2--0----------------------------|
B|--------5---7--5----------------------------------5-3-3/5------------------|
G|----------------------------------------3--2--0----------------------------|
D|---------------------------------------------------------------------------|
A|---------------------------------------(3)---(2)---------------------------|
E|------0--------0--------------------------------------0--------------------| x2


e|-------------------------------------------------5/7--5---0----------------|
B|------3--2--1--1-------3--2--1--0------------2-----------------------------|
G|------0--0--0--0-------0--0--0--0------------2-----------------------------|
D|-------------------------------------------------7/9--7---2----------------|
A|---------------------------------------------0-----------------------------|
E|------0--0--0--0-------0--0--0--0------------------------------------------|

e|------3--2--0------2-------------------------3--3/5---0--------------------|
B|------1-------3----1-------------------------------------------------------|
G|------0------------0-------------------------------------------------------|
D|---------------------------------------------5--5/7---2--------------------|
A|---------------------------------------------------------------------------|
E|------------------------------------------------------0--------------------|


Outro:

e|------3---5----3-------------3---5----7-------------3---5----3-------------|
B|--------5---7--5---------------5---7--8---------------5---7--5-------------|
G|---------------------------------------------------------------------------|
D|---------------------------------------------------------------------------|
A|---------------------------------------------------------------------------|
E|------0--------0-------------0--------0-------------0--------0-------------|

e|------3-2-0------------------3-2-0------------------3-2-0------------------|
B|-------------5-3-3/5----------------5-3-5------------------5-3-------------|
G|------3-2-0------------------3-2-0------------------3-2-0------------------|
D|---------------------------------------------------------------------------|
A|---------------------------------------------------------------------------|
E|-----------------0----------------------0--------------------0-------------|            
Submit corrections


        The Last Of Us You And Me  lessons Hard to play? Try these video lessons and learn fast The Last Of Us You And Me  lessons
        
↑ Back to top | Tablatures and chords for acoustic guitar and electric guitar, ukulele, drums are parodies/interpretations of the original songs. You may use it for private study, scholarship, research or language learning purposes only