» » »

Gustavo Santaolalla - The Last Of Us Goodnight Tabs

Artists:  A B C D E F G H I J K L M N O P Q R S T U V W X Y Z # 

The Last Of Us Goodnight Tabs

(ver. 1) Click to play this song!
Gustavo Santaolalla
 Rating:
4/5 (4 votes)

 The Last Of Us Goodnight  lessons Tabs too difficult? Try these video lessons and learn fast
 
                INTRO
e|-----------7----------------7|
B|----8----8--8---------8----8-|
G|--9----9-----9------9----9---|
D|-----9-----------------9-----|
A|-----------------------------|
E|-----------------------------|

In the all song(including the intro)only use your thumb

e|--3--------0--------5--------2--------3---------3---------3---|
B|--------5--------5--------5---------5--------5---------5------| 
G|-----4--------4--------4--------4---------4---------4---------|
D|--------------------------------------------------------------|
A|--------------------------------------------------------------|
E|--------------------------------------------------------------|

e|--3--------0--------5--------2---------5/7--------7--------7----|
B|--------5--------5--------5--------5----------5--------5--------| 
G|-----4--------4--------4--------4-----------4--------4----------|
D|----------------------------------------------------------------|
A|----------------------------------------------------------------|
E|----------------------------------------------------------------|

e|--3--------0--------5--------2--------3---------3---------3---|
B|--------5--------5--------5--------5--------5---------5-------| 
G|-----4--------4--------4--------4---------4---------4---------|
D|--------------------------------------------------------------|
A|--------------------------------------------------------------|
E|--------------------------------------------------------------|

e|-6------6/5--3----------------5-2--5-2--|
B|-----5----------5-3-3h5---5-4-----------| 
G|---4------------------------------------|
D|----------------------------------------|
A|----------------------------------------|
E|----------------------------------------|

Ending

e|----------------12|      
B|-5--8--5--3-----12| 
G|-----------------9|
D|-----------------9|
A|------------------|
E|------------------|

            
Submit corrections


        The Last Of Us Goodnight  lessons Hard to play? Try these video lessons and learn fast The Last Of Us Goodnight  lessons
        
↑ Back to top | Tablatures and chords for acoustic guitar and electric guitar, ukulele, drums are parodies/interpretations of the original songs. You may use it for private study, scholarship, research or language learning purposes only