» » »

Guns N Roses - Get In The Ring Tabs

Artists:  A B C D E F G H I J K L M N O P Q R S T U V W X Y Z # 

Get In The Ring Tabs

(ver. 1) Click to play this song!
Guns N Roses
 Rating:
4/5 (4 votes)
    Get In The Ring lessons Tabs too difficult? Try these video lessons and learn fast
                Get In The Ring    ...by Guns n'Roses
Another Great Song from Slash and Axl Rose.



Here it is...

Intro:
|----------------------------------------------------------------|
|----------------------------------------------------------------|
|----------------------------------------------------------------|
|----------12-15--rfb15------------------------------------------|
|-13~~~-13--------------15hbr-15hbr-13~~~--------13-13-15-13~~~~-|
|------------------------------------------13h15-----------------|

|----------------------------------------------------------------------|
|----------------------------------------------------------------------|
|---------------------------17hb---------------------------------------|
|-------13--rfb13------------------------------------------15-17-15-17-|
|-13-15-----------15hbr-13------------15----13-13~~~-15/17-------------|
|-----------------------------------x----15----------------------------|

|---------------------------------------------------------------------|
|-----------------15-18--rfb18----------------------15-18-16-15-16-15-|
|-17----15~~~~-15---------------rhb15-13-15fb~~~----------------------|
|----17---------------------------------------------------------------|
|---------------------------------------------------------------------|
|---------------------------------------------------------------------|

|---------------------------------------------------------------------|
|------15-------15-------15-------15----------------------------15-18-|
|-17fb-----17fb-----17fb-----17fb-----17fbrp15-17----15~~~~-----------|
|-------------------------------------------------17--------17--------|
|---------------------------------------------------------------------|
|---------------------------------------------------------------------|

|------18-----------------------------------|
|-18fb----r18-15-18----18----18----------18-|
|----------------17fb--17fb--17----------17-|
|-------------------------------------------|
|-------------------------------------------|
|-------------------------------------------|

Build up to lyrics:

   Eb5    Bb5       F5
|---------------------------6----------------------------------------------|
|-----------------------9fb---9-6-8hbrp6---6----------------11~~~~~~(11)\8-|
|----------------------------------------8---7---8---7-8-7-----------------|
|----------------------------------------------8---8-----------------------|
|--------------------------------------------------------------------------|
|--------------------------------------------------------------------------|

Just use chords in verse:

|---8fb--8-6-8fb-6-------6--------------------------------------|
|-6----------------6-9fb---9-6----------------------------------|
|-------------------------------8fbrp6--------------------------|
|---------------------------------------8~~~~~~~~~~~~~~~~~~~~~~-|
|---------------------------------------------------------------|
|---------------------------------------------------------------|

  just before second verse:
|----------------------------------------|
|----------------------------------------|
|----------------------------------------|
|-8~~~-----------------------------------|
|------6-5-------5-6~~~~~-6fbrfbrfbr-0-8-|
|----------6-6-8-----------------------6-|

  Guitar solo:
|---------------------------------------------------------------------|
|-10--(10)h12-------10----10--10-------10---------13---------10-10----|
|-10--(10)h12-------10-12-10--10-12----10----12fb----12------10-10----|
|-------------12-12----12-----------12----12------------12---------12-|
|---------------------------------------------------------------------|
|---------------------------------------------------------------------|

|------------------------------------------------------------------------|
|-12hbr---------------10--------------------17hb-17-15-17-18-19-18-17-15-|
|-12hbr-(12)p10-12----10--17fb--17-17-17r17------------------------------|
|------------------12----------------------------------------------------|
|------------------------------------------------------------------------|
|------------------------------------------------------------------------|

|---------------------------------------(0)-20fb------(20)~~~~~~~~-|
|-------18-20-20hb-20fbr-19-20-19-20-19----------------------------|
|-17/19------------------------------------------------------------|
|------------------------------------------------------------------|
|------------------------------------------------------------------|
|------------------------------------------------------------------|
            
Submit corrections

↑ Back to top | Tablatures and chords for acoustic guitar and electric guitar, ukulele, drums are parodies/interpretations of the original songs. You may use it for private study, scholarship, research or language learning purposes only