Home » G » Guided By Voices »

Guided By Voices - The Head Tabs

Artists:  A B C D E F G H I J K L M N O P Q R S T U V W X Y Z # 

The Head Tabs

(ver. 1) Click to play this song!
Guided By Voices
[Intro] [Bass transcribed for guitar]
 
e|-------------------------|-------------------------|-------------------------|-------------------------|
B|-------------------------|-------------------------|-------------------------|-------------------------|
G|-------------------------|-------------------------|-------------------------|-------------------------|
D|-------------------------|-------------------------|-------------------------|-------------------------|
A|-------------------------|-------------------------|-------------------------|-------------------------|
E|-0--------0--0-----------|-0--------0--0-----------|-0--------0--0-----------|-0--------0--0-----------|
 
 
[Intro] [Guitar enters]
 
   E           F             F#          G             E           F             F#          G
e|-------------------------|-------------------------|-------------------------|-------------------------|
B|-------------------------|-------------------------|-------------------------|-------------------------|
G|-1--1--1--1--2--2--2--2--|-3--3--3--3--4-----4-----|-1--1--1--1--2--2--2--2--|-3--3--3--3--4-----4-----|
D|-2--2--2--2--3--3--3--3--|-4--4--4--4--5-----5-----|-2--2--2--2--3--3--3--3--|-4--4--4--4--5-----5-----|
A|-2--2--2--2--3--3--3--3--|-4--4--4--4--5-----5-----|-2--2--2--2--3--3--3--3--|-4--4--4--4--5-----5-----|
E|-0--0--0--0--1--1--1--1--|-2--2--2--2--3-----3-----|-0--0--0--0--1--1--1--1--|-2--2--2--2--3-----3-----|
 
   E           F             F#          G             E5                        E5
e|-------------------------|-------------------------|-------------------------|-------------------------|
B|-------------------------|-------------------------|-------------------------|-------------------------|
G|-1--1--1--1--2--2--2--2--|-3--3--3--3--4-----4-----|-------------------------|-------------------------|
D|-2--2--2--2--3--3--3--3--|-4--4--4--4--5-----5-----|-2--------2--2-----------|-2--------2--2-----------|
A|-2--2--2--2--3--3--3--3--|-4--4--4--4--5-----5-----|-2--------2--2-----------|-2--------2--2-----------|
E|-0--0--0--0--1--1--1--1--|-2--2--2--2--3-----3-----|-0--------0--0-----------|-0--------0--0-----------|
 
   E5                        E5
e|-------------------------|-------------------------|
B|-------------------------|-------------------------|
G|-------------------------|-------------------------|
D|-2--------2--2-----------|-2--------2--2-----------|
A|-2--------2--2-----------|-2--------2--2-----------|
E|-0--------0--0-----------|-0--------0--0-----------|
                                             We have
 
 
[Verse 1]
 
   E           F             F#          G             E           F             F#          G
e|-------------------------|-------------------------|-------------------------|-------------------------|
B|-------------------------|-------------------------|-------------------------|-------------------------|
G|-1--1--1--1--2--2--2--2--|-3--3--3--3--4-----4-----|-1--1--1--1--2--2--2--2--|-3--3--3--3--4-----4-----|
D|-2--2--2--2--3--3--3--3--|-4--4--4--4--5-----5-----|-2--2--2--2--3--3--3--3--|-4--4--4--4--5-----5-----|
A|-2--2--2--2--3--3--3--3--|-4--4--4--4--5-----5-----|-2--2--2--2--3--3--3--3--|-4--4--4--4--5-----5-----|
E|-0--0--0--0--1--1--1--1--|-2--2--2--2--3-----3-----|-0--0--0--0--1--1--1--1--|-2--2--2--2--3-----3-----|
   found             what   appears to be the head of the operation                                somewhat 
 
   E           F             F#          G             E5                        E5
e|-------------------------|-------------------------|-------------------------|-------------------------|
B|-------------------------|-------------------------|-------------------------|-------------------------|
G|-1--1--1--1--2--2--2--2--|-3--3--3--3--4-----4-----|-------------------------|-------------------------|
D|-2--2--2--2--3--3--3--3--|-4--4--4--4--5-----5-----|-2--------2--2-----------|-2--------2--2-----------|
A|-2--2--2--2--3--3--3--3--|-4--4--4--4--5-----5-----|-2--------2--2-----------|-2--------2--2-----------|
E|-0--0--0--0--1--1--1--1--|-2--2--2--2--3-----3-----|-0--------0--0-----------|-0--------0--0-----------|
   lighter          and a    little  smaller   than  expected
 
   E5                        E5
e|-------------------------|-------------------------|
B|-------------------------|-------------------------|
G|-------------------------|-------------------------|
D|-2--------2--2-----------|-2--------2--2-----------|
A|-2--------2--2-----------|-2--------2--2-----------|
E|-0--------0--0-----------|-0--------0--0-----------|
                                           but we've
 
 
[Chorus]
 
   D5                        D5                        E5                        E5
e|-------------------------|-------------------------|-------------------------|-------------------------|
B|-3--3--3--3--3--3--3--3--|-3--3--3--3--3--3--3--3--|-------------------------|-------------------------|
G|-2--2--2--2--2--2--2--2--|-2--2--2--2--2--2--2--2--|-------------------------|-------------------------|
D|-0--0--0--0--0--0--0--0--|-0--0--0--0--0--0--0--0--|-2--------2--2-----------|-2--------2--2-----------|
A|-------------------------|-------------------------|-2--------2--2-----------|-2--------2--2-----------|
E|-------------------------|-------------------------|-0--------0--0-----------|-0--------0--0-----------|
   not   yet   found   the   body        of    the     sawed-off head
 
   D5                        D5
e|-------------------------|-------------------------|
B|-3--3--3--3--3--3--3--3--|-3--3--3--3--3--3--3--3--|
G|-2--2--2--2--2--2--2--2--|-2--2--2--2--2--2--2--2--|
D|-0--0--0--0--0--0--0--0--|-0--0--0--0--0--0--0--0--|
A|-------------------------|-------------------------|
E|-------------------------|-------------------------|
                             Not   yet   found   the 
 
 
[Outro]
 
   E           F             F#          G             E           F             F#          G
e|-------------------------|-------------------------|-------------------------|-------------------------|
B|-------------------------|-------------------------|-------------------------|-------------------------|
G|-1--1--1--1--2--2--2--2--|-3--3--3--3--4-----4-----|-1--1--1--1--2--2--2--2--|-3--3--3--3--4--4--4--4--|
D|-2--2--2--2--3--3--3--3--|-4--4--4--4--5-----5-----|-2--2--2--2--3--3--3--3--|-4--4--4--4--5--5--5--5--|
A|-2--2--2--2--3--3--3--3--|-4--4--4--4--5-----5-----|-2--2--2--2--3--3--3--3--|-4--4--4--4--5--5--5--5--|
E|-0--0--0--0--1--1--1--1--|-2--2--2--2--3-----3-----|-0--0--0--0--1--1--1--1--|-2--2--2--2--3--3--3--3--|
   head                                                head
 
   E
e|-------------------------|
B|-------------------------|
G|-1-----------------------|
D|-2-----------------------|
A|-2-----------------------|
E|-0-----------------------|
            
Submit corrections

↑ Back to top | Tablatures and chords for acoustic guitar and electric guitar, ukulele, drums are parodies/interpretations of the original songs. You may use it for private study, scholarship, research or language learning purposes only