» » »

Guided By Voices - Official Iron Man Rally Song Bass

Artists:  A B C D E F G H I J K L M N O P Q R S T U V W X Y Z # 

Official Iron Man Rally Song Bass

(ver. 1) Click to play this song!
Guided By Voices
 Rating:
4/5 (4 votes)
                (c) 1996 Matador Records


Tab Explanation:

/ equals slide up    \ equals slide down


Verse:
----------------------------------------------
-2----1---------------------------------------
-----------4-----------1----------------------
-----------------2-----------4----------------


----------------------------------------------
-------------4----3----4----3----4----3-------
-/4----------------------------------------1--
----------------------------------------------


----------------------------------------------
-1-----3 / 4----4 \ 3----1--------------------
----------------------------------------------
-------------------------------4--------------



----------------------------------------------
-2----1---------------------------------------
-----------4-----------1-----------1----3-----
-----------------2-----------4----------------


 Chorus:
----------------------------------------------
----------------------------------------------
----------------/4--4--3----3--4--------------
-2--2--2--2--2--------------------2--2--4--4--


-----------------------------------------------------
-----------------------------------------1----3----4-
-1--1--1--1--1-----------------/4--4-----------------
----------------2--2--2--2--2------------------------


------3---------3----5--------------------------
-6---------6------------------------------------
------------------------------------------------
------------------------------------------------

If you liked this tab, check out my other tabs at 
            
Submit corrections

↑ Back to top | Tablatures and chords for acoustic guitar and electric guitar, ukulele, drums are parodies/interpretations of the original songs. You may use it for private study, scholarship, research or language learning purposes only