Home » G » Guided By Voices »

Guided By Voices - Difficult Outburst And Breakthrough Tabs

Artists:  A B C D E F G H I J K L M N O P Q R S T U V W X Y Z # 

Difficult Outburst And Breakthrough Tabs

(ver. 1) Click to play this song!
Guided By Voices
[Verse 1]
 
   G#5         A#5           B5                        C#5         D#5           F#5
e|-------------------------|-------------------------|-------------------------|-------------------------|
B|-------------------------|-------------------------|-------------------------|-------------------------|
G|-------------------------|-------------------------|-6--6--6--6--8--8--8--8--|-11-11-11-11-11-11-11-11-|
D|-6--6--6--6--8--8--8--8--|-9--9--9--9--9--9--9--9--|-6--6--6--6--8--8--8--8--|-11-11-11-11-11-11-11-11-|
A|-6--6--6--6--8--8--8--8--|-9--9--9--9--9--9--9--9--|-4--4--4--4--6--6--6--6--|-9--9--9--9--9--9--9--9--|
E|-4--4--4--4--6--6--6--6--|-7--7--7--7--7--7--7--7--|-------------------------|-------------------------|
   Difficult outburst and    breakthrough              something bombastic to    make you
 
   G#5         A#5           B5                        C#5                       G#5
e|-------------------------|-------------------------|-------------------------|-------------------------|
B|-------------------------|-------------------------|-------------------------|-------------------------|
G|-------------------------|-------------------------|-6--6--6--6--6--6--6--6--|-------------------------|
D|-6--6--6--6--8--8--8--8--|-9--9--9--9--9--9--9--9--|-6--6--6--6--6--6--6--6--|-6--6--6--6--6--6--6--6--|
A|-6--6--6--6--8--8--8--8--|-9--9--9--9--9--9--9--9--|-4--4--4--4--4--4--4--4--|-6--6--6--6--6--6--6--6--|
E|-4--4--4--4--6--6--6--6--|-7--7--7--7--7--7--7--7--|-------------------------|-4--4--4--4--4--4--4--4--|
   Change your point of      view        before you    focus    on anything      new
 
 
[Verse 2]
 
   G#5         A#5           B5                        C#5         D#5           F#5
e|-------------------------|-------------------------|-------------------------|-------------------------|
B|-------------------------|-------------------------|-------------------------|-------------------------|
G|-------------------------|-------------------------|-6--6--6--6--8--8--8--8--|-11-11-11-11-11-11-11-11-|
D|-6--6--6--6--8--8--8--8--|-9--9--9--9--9--9--9--9--|-6--6--6--6--8--8--8--8--|-11-11-11-11-11-11-11-11-|
A|-6--6--6--6--8--8--8--8--|-9--9--9--9--9--9--9--9--|-4--4--4--4--6--6--6--6--|-9--9--9--9--9--9--9--9--|
E|-4--4--4--4--6--6--6--6--|-7--7--7--7--7--7--7--7--|-------------------------|-------------------------|
   Difficult outburst and    breakthrough              something bombastic to    make you
 
   G#5         A#5           B5                        C#5                       G#5
e|-------------------------|-------------------------|-------------------------|-------------------------|
B|-------------------------|-------------------------|-------------------------|-------------------------|
G|-------------------------|-------------------------|-6--6--6--6--6--6--6--6--|-------------------------|
D|-6--6--6--6--8--8--8--8--|-9--9--9--9--9--9--9--9--|-6--6--6--6--6--6--6--6--|-6--6--6--6--6--6--6--6--|
A|-6--6--6--6--8--8--8--8--|-9--9--9--9--9--9--9--9--|-4--4--4--4--4--4--4--4--|-6--6--6--6--6--6--6--6--|
E|-4--4--4--4--6--6--6--6--|-7--7--7--7--7--7--7--7--|-------------------------|-4--4--4--4--4--4--4--4--|
   Change your point of      view        before you    focus    on anything      new
 
 
[Chorus]
 
   G#5                       B5                        G#5                       G#5
e|-------------------------|-------------------------|-------------------------|-------------------------|
B|-------------------------|-------------------------|-------------------------|-------------------------|
G|-------------------------|-------------------------|-------------------------|-------------------------|
D|-6-----------------------|-9-----------------------|-6--6--6--6--6--6--6--6--|-6--6--6--6--6--6--6--6--|
A|-6-----------------------|-9-----------------------|-6--6--6--6--6--6--6--6--|-6--6--6--6--6--6--6--6--|
E|-4-----------------------|-7-----------------------|-4-----------------------|-------------------------|
   Presenting   private      dangerous     to          general public
 
   G#5                       B5                        G#5                       G#5
e|-------------------------|-------------------------|-------------------------|-------------------------|
B|-------------------------|-------------------------|-------------------------|-------------------------|
G|-------------------------|-------------------------|-------------------------|-------------------------|
D|-6-----------------------|-9-----------------------|-6--6--6--6--6--6--6--6--|-6--6--6--6--6--6--6--6--|
A|-6-----------------------|-9-----------------------|-6--6--6--6--6--6--6--6--|-6--6--6--6--6--6--6--6--|
E|-4-----------------------|-7-----------------------|-4-----------------------|-------------------------|
   Transferring her to       transatlantic             sister      city
 
   B5                                                   C#5
e|-------------------------|-------------------------|-------------------------|-------------------------|
B|-------------------------|-------------------------|-------------------------|-------------------------|
G|-------------------------|-------------------------|-------------------------|-------------------------|
D|-9--9--9--9--9--9--9--9--|-9--9--9--9--9--9--9--9--|-11-11-11-11-11-11-11-11-|-11-11-11-11-11-11-11-11-|
A|-9--9--9--9--9--9--9--9--|-9--9--9--9--9--9--9--9--|-11-11-11-11-11-11-11-11-|-11-11-11-11-11-11-11-11-|
E|-7--7--7--7--7--7--7--7--|-7--7--7--7--7--7--7--7--|-9--9--9--9--9--9--9--9--|-9--9--9--9--9--9--9--9--|
   Have     you      no      pity                      Where    is    your       rifle 
 
   G#5   F#5                 C#5   F#5                 G#5
e|-------------------------|-------------------------|-------------------------|-------------------------|
B|-------------------------|-------------------------|-------------------------|-------------------------|
G|-------------------------|-6-----------------------|-------------------------|-------------------------|
D|-6-----4-----------------|-6-----4-----------------|-6-----------------------|-------------------------|
A|-6-----4-----------------|-4-----4-----------------|-6-----------------------|-------------------------|
E|-4-----2-----------------|-------2-----------------|-4-----------------------|-------------------------|
   Come to this        ex-   plore him          with   microscope eyes 
 
 
[Verse 3]
 
   G#5         A#5           B5                        C#5         D#5           F#5
e|-------------------------|-------------------------|-------------------------|-------------------------|
B|-------------------------|-------------------------|-------------------------|-------------------------|
G|-------------------------|-------------------------|-6--6--6--6--8--8--8--8--|-11-11-11-11-11-11-11-11-|
D|-6--6--6--6--8--8--8--8--|-9--9--9--9--9--9--9--9--|-6--6--6--6--8--8--8--8--|-11-11-11-11-11-11-11-11-|
A|-6--6--6--6--8--8--8--8--|-9--9--9--9--9--9--9--9--|-4--4--4--4--6--6--6--6--|-9--9--9--9--9--9--9--9--|
E|-4--4--4--4--6--6--6--6--|-7--7--7--7--7--7--7--7--|-------------------------|-------------------------|
   Difficult outburst and    breakthrough              something bombastic to    make you
 
   G#5         A#5           B5                        C#5                       G#5
e|-------------------------|-------------------------|-------------------------|-------------------------|
B|-------------------------|-------------------------|-------------------------|-------------------------|
G|-------------------------|-------------------------|-6--6--6--6--6--6--6--6--|-------------------------|
D|-6--6--6--6--8--8--8--8--|-9--9--9--9--9--9--9--9--|-6--6--6--6--6--6--6--6--|-6--6--6--6--6--6--6--6--|
A|-6--6--6--6--8--8--8--8--|-9--9--9--9--9--9--9--9--|-4--4--4--4--4--4--4--4--|-6--6--6--6--6--6--6--6--|
E|-4--4--4--4--6--6--6--6--|-7--7--7--7--7--7--7--7--|-------------------------|-4--4--4--4--4--4--4--4--|
   Change your point of      view        before you    focus    on anything      new             in the
 
 
[Outro]
 
   G#5                       B5                        G#5                       G#5
e|-------------------------|-------------------------|-------------------------|-------------------------|
B|-------------------------|-------------------------|-------------------------|-------------------------|
G|-------------------------|-------------------------|-------------------------|-------------------------|
D|-6-----------------------|-9-----------------------|-6--6--6--6--6--6--6--6--|-6--6--6--6--6--6--6--6--|
A|-6-----------------------|-9-----------------------|-6--6--6--6--6--6--6--6--|-6--6--6--6--6--6--6--6--|
E|-4-----------------------|-7-----------------------|-4-----------------------|-------------------------|
   branch of the woods in    uniform         spot in   parts not afraid to play  the war games
 
   G#5                       B5                        G#5                       G#5
e|-------------------------|-------------------------|-------------------------|-------------------------|
B|-------------------------|-------------------------|-------------------------|-------------------------|
G|-------------------------|-------------------------|-------------------------|-------------------------|
D|-6-----------------------|-9-----------------------|-6--6--6--6--6--6--6--6--|-6--6--6--6--6--6--6--6--|
A|-6-----------------------|-9-----------------------|-6--6--6--6--6--6--6--6--|-6--6--6--6--6--6--6--6--|
E|-4-----------------------|-7-----------------------|-4-----------------------|-------------------------|
   branch of the woods in    uniform         spot in   parts not afraid to play  the war games
 
   C#5                       C#5                       B5                        B5
e|-------------------------|-------------------------|-------------------------|-------------------------|
B|-------------------------|-------------------------|-------------------------|-------------------------|
G|-------------------------|-------------------------|-------------------------|-------------------------|
D|-11-11-11-11-11-11-11-11-|-11-11-11-11-11-11-11-11-|-9--9--9--9--9--9--9--9--|-9--9--9--9--9--9--9--9--|
A|-11-11-11-11-11-11-11-11-|-11-11-11-11-11-11-11-11-|-9--9--9--9--9--9--9--9--|-9--9--9--9--9--9--9--9--|
E|-9--9--9--9--9--9--9--9--|-9--9--9--9--9--9--9--9--|-7--7--7--7--7--7--7--7--|-7--7--7--7--7--7--7--7--|
   War games                                           War games
 
   G#5
e|-------------------------|
B|-------------------------|
G|-------------------------|
D|-6-----------------------|
A|-6-----------------------|
E|-4-----------------------|
            
Submit corrections

↑ Back to top | Tablatures and chords for acoustic guitar and electric guitar, ukulele, drums are parodies/interpretations of the original songs. You may use it for private study, scholarship, research or language learning purposes only