» » »

Guano Apes - No Speech Tabs

Artists:  A B C D E F G H I J K L M N O P Q R S T U V W X Y Z # 

No Speech Tabs

(ver. 2) Click to play this song!
Guano Apes
 Rating:
4/5 (4 votes)

 No Speech lessons Tabs too difficult? Try these video lessons and learn fast
 
                Guano Apes
No Speech


Normal Tuning

Intro and Mainriff
e|-------------------------------------------------
h|-------------------------------------------------
g|--5-8--------------------------------------------
D|--5-8-6-666-x-3-333------------------------------
A|--3-6-6-666-x-3-333------------------------------
E|------4-444-X-1-111------------------------------


during 2part of the intro and the chorus
a second guitar plays:
e|-------------------------------------------------
h|-------------------------------------------------
g|-------------------------------------------------
D|-------------------------------------------------
A|--5-6--6-6666-6-6666--3-5-6-8--3-5-6-8-----------
E|-------------------------------------------------



Verse:

i think this plays the bass

due the end play: (nor shure about it)

e|-------------------------------------------------
h|-------------------------------------------------
g|-------------------------------------------------
D|-55--55--5-6-8-----------------------------------
A|-55--55--5-6-8-----------------------------------
E|-33--33--3-4-6-----------------------------------


bridge:


e|-------------------------------------------------
h|-------------------------------------------------
g|-------------------------------------------------
D|--10--10-10-10--10--10-10----8-6-5---------------
A|--10--10-10-10--10--10-10----8-6-5---------------
E|--8---8--8--8---8---8--8-----6-4-3---------------



i think most of this is correct.
i tabbed it so that U can use the normal tuning.

thnx have fun
Mago
            
Submit corrections


        No Speech lessons Hard to play? Try these video lessons and learn fast No Speech lessons
        
↑ Back to top | Tablatures and chords for acoustic guitar and electric guitar, ukulele, drums are parodies/interpretations of the original songs. You may use it for private study, scholarship, research or language learning purposes only