» » »

Guano Apes - Big In Japan Tabs

Artists:  A B C D E F G H I J K L M N O P Q R S T U V W X Y Z # 

Big In Japan Tabs

(ver. 1) Click to play this song!
Guano Apes
 Rating:
3.4/5 (11 votes)

 Big In Japan lessons Tabs too difficult? Try these video lessons and learn fast
 
                Tuning:
eb
Bb
Gb
Db
Ab
Eb
basicly... half a step down.

Intro (2x)
--------------------------------------------------|
--------------------------------------------------|
----12-------------12-----12-----------(b)12--12--|
-------14--12--14------------14--12--14-----------|
--------------------------------------------------|
--------------------------------------------------|

-------------------------------------------|
-------------------------------------------|
--12-------------12--(b)14-14-14-14-14-14--|
-----14--12-14-----------------------------|
-------------------------------------------|
-------------------------------------------|


Verse
part1 (bass)
--------------------------------------------------------------------|
--------------------------------------------------------------------|
------------------3-3-3-3-3-3-3-3-3-5-5-5-5-5-5-5-5-2-2-2-2-2-2-2-2-|
--0-0-0-0-0-0-0-0---------------------------------------------------|
Part 2
Guitar1                          Guitar2 (ska beat)
  2 times                          just repeat all over
--------------------------   --x--12--x--12--x--12--x--12---|
--------------------------   --x--12--x--12--x--12--x--12---|
-----5--7--4--5-----4--4--   -------------------------------|
--2--5--7--4--5--7--4--4--   -------------------------------|
--2--3--5--2--3--7--2--2--   -------------------------------|
--0--------------5--------   -------------------------------|

Chorus (2x)
(mute first time only)
------------------------------------------------------------|
------------------------------------------------------------|
--------x--x--5--5--x-x-x-x--7--7--x--x--4--4-x-x-x-x--5--5-|
--2--2--x--x--5--5--x-x-x-x--7--7--x--x--4--4-x-x-x-x--5--5-|
--2--2--x--x--3--3--x-x-x-x--5--5--x--x--2--2-x-x-x-x--3--3-|
--0--0--x--x------------------------------------------------|
                                 Guitar2
                                last chorus only (reverb)
-------------------------     ----12-12-12-12-12-12-12-12---|
-------------------------     ------------------------------|
-x--x----------------4---     ------------------------------|
-x--x--7--7-x-x-x-x--4---     ------------------------------|
-x--x--7--7-x-x-x-x--2---     ------------------------------|
-x--x--5--5-x-x-x-x------     ------------------------------|

Bridge
Part1
-----------------------------------|
-----------------------------------|
--------------5-----5--7-----4-----|
--2--2-----2--5-----5--7-----4-----|
--2--2-----2--3-----3--5-----2-----|
--0--0-----------------------------|
Part2 Try to get some harmonics when muting
------------------------------------------------------------------|
------------------------------------------------------------------|
------------------5---x-x-x-x-x-x-7---x-x-x-x-x-x-4---x-x-x-x-x-x-|
--2---x-x-x-x-x-x-5---x-x-x-x-x-x-7---x-x-x-x-x-x-4---x-x-x-x-x-x-|
--2---x-x-x-x-x-x-3---x-x-x-x-x-x-5---x-x-x-x-x-x-2---x-x-x-x-x-x-|
--0---x-x-x-x-x-x-------------------------------------------------|

-------------------------------------------------------------------|
-------------------------------------------------------------------|
--5---x-x-x-x-x-x-----------------4-4-4-4-4-4-4-4-4-4-4-4-4-4-4-4--|
--5---x-x-x-x-x-x-7---x-x-x-x-x-x-4-4-4-4-4-4-4-4-4-4-4-4-4-4-4-4--|
--3---x-x-x-x-x-x-7---x-x-x-x-x-x-2-2-2-2-2-2-2-2-2-2-2-2-2-2-2-2--|
------------------5---x-x-x-x-x-x----------------------------------|

Order:

Intro
Verse1
Chorus
Verse2
Chorus
Bridge
Chorus 2x (dont mute at all, the 2nd time the guitar2 comes in)

Lyrics:
Winters city-side
Crystal bits of snowflakes all around my head and in the wind
I had no illusions
That I'd ever find a glimpse of summers heat-waves in your eyes

You did what you did to me, now it's history I see
Heres my comeback on the road again
Things will happen while they can
I will wait here for my man tonight, it's easy when you're big in japan

Youre big in japan
Youre big in japan
Youre big in japan
Its when
Youre big in japan, then I'll sleep by your side all through the night
Big in japan, it's easy to be

Neon on my skin
Passing silhouettes of strange illuminated mannequins
Shall I stay here at the zoo
Or shall I go and change my point of view for other ugly scenes
You did what you did to me, now it's history I see
Things will happen while they can
I will wait here for my man tonight, it's easy when you're big in japan

Youre big in japan
Youre big in japan
Youre big in japan
Its when
Youre big in japan, then I'll sleep by your side all through the night
Big in japan, it's easy to be

Too late, too late

Youre big in japan
Youre big in japan
Youre big in japan
Its when
Youre big in japan, then I'll sleep by your side all through the night
Big in japan, it's easy to be

Youre big in japan, then I'll sleep by your side all through the night
Big in japan, it's easy to be

Youre big in japan
Youre big in japan
Youre big in japan
Its when
Youre big in japan
            
Submit corrections


        Big In Japan lessons Hard to play? Try these video lessons and learn fast Big In Japan lessons
        
↑ Back to top | Tablatures and chords for acoustic guitar and electric guitar, ukulele, drums are parodies/interpretations of the original songs. You may use it for private study, scholarship, research or language learning purposes only