Home » G » Grim Skunk »

Grim Skunk - Iya Basta! Tabs

Artists:  A B C D E F G H I J K L M N O P Q R S T U V W X Y Z # 

Iya Basta! Tabs

(ver. 1) Click to play this song!
Grim Skunk
-----------------------------------------------------------

normal tuning 

Intro
 |---5----5----5----5----3----3----3----3----0----0----0----0----|
 |---------------------------------------------------------|
 |---------------------------------------------------------|
 |---------------------------------------------------------|
 |---------------------------------------------------------|
 |-5---5----5----5----3----3----3----3----0----0----0----0---------|

then...
 |---8----8----8----8----4----4----4----4----5----5----5----5----|
 |----------------------------------------------------------|
 |----------------------------------------------------------|
 |----------------------------------------------------------|
 |----------------------------------------------------------|
 |--8---8----8----8----4----4----4----4----5----5----5----5--------|

after the intro
first riff
 |----6-6-7-9-7-6---4-4-5-7-5-4------------|
 |------------------------------------|
 |--9-------------7---------------------|
 |--9-------------7---------------------|
 |--7-------------5---------------------|
 |------------------------------------|

 |---------------5-5-4-4---8-8-7-7---4-5-------------|
 |--5-5-6-6-5-5---------------------------6-5-----|
 |-------------------------------------------------|
 |-------------------------------------------------|
 |-------------------------------------------------|
 |-------------------------------------------------|

second riff
 |-----------|
 |-----------|
 |-----------|
 |-2-0-------|
 |-----3-3-2-|
 |-----------|

third one
play 4 times
|--------------------------------------------------------------------|
|--------------------------------------------------------------------|
|--------------------------------------------------------------------|
|------------2-----------------3-------------------------------------|
|-0--0-0-0-3---0-0--1--1-1-1-4---1-1-3-3-3-3-3-3-3-1-1-1-1-1-1-0-|
|--------------------------------------------------------------------|
(just play '0' 8 times it'll fit)


repeat first riff

intro

first riff

second

and third (4 times)

first riff (2 times)

 2x
|---------------------------------------------------------------------------|
|---------------------------------------------------------------------------|
|---------------------------------------------------------------------------|
|--7--7-7-7--7-7-7--7-7-7-9-10-5--5-5-5--5-5-5--5-5-5-3--3-3-3--3-3-3-------|
|-/5--5-5-5--5-5-5--5-5-5-7-8--3--3-3-3--3-3-3--3-3-3-1--1-1-1--1-1-1-6-6-5-|
|---------------------------------------------------------------------4-4-3-|

 2x
|-------------------------------------------------------------------|
|-------------------------------------------------------------------|
|-------------------------------------------------------------------|
|-------------------------------------------------------------------|
|-3-5--5-5-5-8-7-5-7-3--3-3-3--3-3-3--3-3-3-1--1-1-1--1-1-1-5-5-4-5-|
|-------------------------------------------------------------------|

the last two riff are played 2 times and you play them 2 times each

second riff one more time and

end with that...

|-----------0-|
|-----------1-|
|-----------2-|
|-2-0-------2-|
|-----3-3-2-0-|
|-------------|

lyrics:

YA BASTA!

  Por tiempo de grande pobresa y tristessa
  Emiliano dejo a su familia y su tierra
  Harto de ver tanta pena
  Aogando su patria tan querida
  Ya basta! 

  Armados de pellas y machetas
  Paysanos, poblecinos al grito de guerra
  Todos juntos y unidos
  Para lograr legar algo a sus hijos 
  Ya basta! 

  Los años pasaron
  La revolucion ganaron
  Cada uno pensaba tierra y libertad 

  Generales Rebeldes
  La causa se les olvido
  El poder de la silla los trahisiono 

  Pendejos Pendejos
  Todos esos años lucharon por qué?/por quien 

  La lucha para la tierra y libertad
  Para nuestros hijos dignidad
  Contra el olvido de l'humanidad
  No esperemos hasta mañana
  Ya Basta! 
            
Submit corrections

↑ Back to top | Tablatures and chords for acoustic guitar and electric guitar, ukulele, drums are parodies/interpretations of the original songs. You may use it for private study, scholarship, research or language learning purposes only