Home » G » Grim Reaper »

Grim Reaper - See You In Hell Bass

Artists:  A B C D E F G H I J K L M N O P Q R S T U V W X Y Z # 

See You In Hell Bass

(ver. 1) Click to play this song!
Grim Reaper
this is a sweet song by grim reaper and i was surprised when i saw there was no bass tab 
the song so i decided to tab it and here it is \m/ have fun rock on


Intro
|------------------------------------------------------------|
|------------------------------------------------------------|
|-7-77777-7-5-3-2-3---5-------7-77777-7-5-3-2-3---2----------|
|------------------------------------------------------------|

Verse
|------------------------------------------------------------------------|
|------------------------------------------------------------------------|
|-7-77777-7-5-3-2-3---5-----7-77777-7-5-3-2-3---2------------------------|
|------------------------------------------------------------------------|

|--------------------------------------------------------------------------|
|--------------------------------------------------------------------------|
|-7-77777-7-5-3-2-3---5------------7-77777-7-5-3-2-3---2-------------------|
|--------------------------------------------------------------------------|
                                                End of Verse

Chorus

 "See you in hell my firend"         "See you in hell my firend"
|---------------------------------------------------------------------|
|---------------------------------------------------------------------|
|-7----------------------------------3--------------------------------|
|---------------------------------------------------------------------|

 "See you in hell my firend"         "I see you in hell"
|--------------------------------------------------------------------|
|--------------------------------------------------------------------|
|-5--------------------------------2----------------3--5-------------|
|--------------------------------------------------------------------|
                                         End of Chorus


                         "See You In Hell"
------------------------------------------------------------------------------|
------------------------------------------------------------------------------|
-7-77777-7-5-3-2-3---5--------------7-77777-7-5-3-2-3---2---------------------|
------------------------------------------------------------------------------|


Repeat Verse and Chorus

And Then:

 Interlude
             Repeat X times

|-----7h9-7------|
|-----------9----|
|-0-0------------|


Solo Riff: Verse

Repat Verse and Chorus again

And Then

 "See you in hell my firend"         "See you in hell my firend"
|---------------------------------------------------------------------|
|---------------------------------------------------------------------|
|-7--------------------------------3----------------------------------|
|---------------------------------------------------------------------|

 "See you in hell my firend"         "I see you in hell"
|--------------------------------------------------------------------|
|--------------------------------------------------------------------|
|-5---------------------------------0--------------------------------|
|--------------------------------------------------------------------|

 "See you in hell"                   "see you in hell"
|---------------------------------------------------------------------|
|---------------------------------------------------------------------|
|-2----------------------------------3--------------------------------|
|---------------------------------------------------------------------|

 "see you in hell"
|------------------------------------|
|------------------------------------|
|--5---------------------------------|
|------------------------------------|

Outro:                             trill
---------------------------------------------------------|
---------------------------------------------------------|
|-7-7-7-5-7-10--9-14-12-10--9-5---7======--7-------------|
|--------------------------------------------------------|
            
Submit corrections

↑ Back to top | Tablatures and chords for acoustic guitar and electric guitar, ukulele, drums are parodies/interpretations of the original songs. You may use it for private study, scholarship, research or language learning purposes only