Home » G » Grim Reaper »

Grim Reaper - Fear No Evil Bass

Artists:  A B C D E F G H I J K L M N O P Q R S T U V W X Y Z # 

Fear No Evil Bass

(ver. 1) Click to play this song!
Grim Reaper
-------------------------------------------------------------------------------
-------------------------------------------------------------------------------


Tuning: standard EADG

Intro:
G|---------------------------------------------------------------------------|
D|---------------------------------------------------------------------------|
A|---------------------------------------------------------------------------|
E|-----0-0----0-8\--0----0-8\--0-0----0-8\--0--------------------------------|

Verse 1:
G|-------------------------------|
D|-------------------------------|
A|---------------------------5-7-|x7
E|-0--0-0-0-0-0-0--0-0-0-7-8-----|

G|-------------------------------|
D|-------------------------------|
A|-------------------------------|
E|-0--0-0-0-0-0-0----------------|

Chorus:
G|-------------------------------------------------------------------------|
D|-------------------------------------------------------------------------|
A|-------------------------------------------------------------------------|x2
E|-5--5-5-5---1-1-1-1--/8-8-8---8--10--3-3-3-3-3-3-3-3-1-1-1-1-0-0-3-------|

Bridge:
G|-------------------------------|
D|-------------------------------|
A|---------------------------5-7-|x3
E|-0--0-0-0-0-0-0--0-0-0-7-8-----|

G|-------------------------------|
D|-------------------------------|
A|-------------------------------|
E|-0--0-0-0-0-0-0----------------|

Verse 2:
G|-------------------------------|
D|-------------------------------|
A|---------------------------5-7-|x7
E|-0--0-0-0-0-0-0--0-0-0-7-8-----|

G|-------------------------------|
D|-------------------------------|
A|-------------------------------|
E|-0--0-0-0-0-0-0----------------|

Chorus:
G|-------------------------------------------------------------------------|
D|-------------------------------------------------------------------------|
A|-------------------------------------------------------------------------|x2
E|-5--5-5-5---1-1-1-1--/8-8-8---8--10--3-3-3-3-3-3-3-3-1-1-1-1-0-0-3-------|

Solo:
G|----------------------------------|
D|----------------------------------|
A|----------------------------------|x2
E|-0-0---3-3---5-5---8-8-8-7-7-7-8--|

G|-------------------------------------------------------------------------|
D|-------------------------------------------------------------------------|
A|-------------------------------------------------------------------------|x6
E|-0-0-0-2-2-2-3-3-0-0-0-2-2-2-3-3-5-5-5-7-7-7-8-8-5-5-5-8--7--------------|

Chorus:
G|-------------------------------------------------------------------------|
D|-------------------------------------------------------------------------|
A|-------------------------------------------------------------------------|x2
E|-5--5-5-5---1-1-1-1--/8-8-8---8--10--3-3-3-3-3-3-3-3-1-1-1-1-0-0-3-------|

Bridge:
G|-------------------------------|
D|-------------------------------|
A|---------------------------5-7-|x4
E|-0--0-0-0-0-0-0--0-0-0-7-8-----|

Verse 3:
G|-------------------------------|
D|-------------------------------|
A|---------------------------5-7-|x7
E|-0--0-0-0-0-0-0--0-0-0-7-8-----|

G|-------------------------------|
D|-------------------------------|
A|-------------------------------|
E|-0--0-0-0-0-0-0----------------|

Chorus:
G|---------------------------------------------------------------------------|
D|---------------------------------------------------------------------------|
A|---------------------------------------------------------------------------|
E|-5-5-5-5---1-1-1-1--/8-8-8---8--10--3-3-3-3-3-3-3-3-1-1-1-1-0-0-3----------|

G|---------------------------------------------------------------------------|
D|---------------------------------------------------------------------------|
A|---------------------------------------------------------------------------|
E|-5-5-5-5---1-1-1-1--/8-8-8---8--10--3-3-3-3-3-3-3-3-1-1-1-1-0-0-3----------|

Outro:
G|--------------------------------|
D|--------------------------------|
A|--------------------------------|x3
E|-3-3-3-3-3-3-3-3-1-1-1-1-0-0-3--|

G|-----------|
D|-----------|
A|-----------|
E|-5---5--5--|

===============================================================================
Notes: 

If You have problems with this tab, write Me a mail what's wrong with it
instead of giving it a bad rating! It'd be better for everyone! Thx!


| /  slide up
| \  slide down
| h  hammer-on
| p  pull-off
| ~  vibrato
| +  harmonic
| x  Mute note
===============================================================================
            
Submit corrections

↑ Back to top | Tablatures and chords for acoustic guitar and electric guitar, ukulele, drums are parodies/interpretations of the original songs. You may use it for private study, scholarship, research or language learning purposes only