» » »

Grey Box - The Dark Night Tabs

Artists:  A B C D E F G H I J K L M N O P Q R S T U V W X Y Z # 

The Dark Night Tabs

(ver. 1) Click to play this song!
Grey Box
 Rating:
4/5 (4 votes)
                Here is the new slow song by grey box.  It is played using simple bar chords.  Enjoy

INTRO (play each chord just once)
[-0--------0--------0--------0-----]
[-0--------3--------0--------2-----]
[-2--------2--------1--------1-----]
[-2--------2--------1--------1-----]
[-0--------0--------0--------0-----]
[-0--------0--------0--------0-----]
For verse and chorus play each chord x6, listen to CD for rhythm.


POST VERSE/CHORUS
[-0-----0-----0-----]
[-0-----6-----0-----]
[-5-----5-----0-----]
[-5-----5-----2-----]
[-0-----0-----2-----]
[-0-----0-----0-----]
Again play each bar x6 then start again.

There you go The Dark Night by Grey Box, different from what they usually do but still a great song. 
(can’t be bothered tabbing the solo)
            
Submit corrections

↑ Back to top | Tablatures and chords for acoustic guitar and electric guitar, ukulele, drums are parodies/interpretations of the original songs. You may use it for private study, scholarship, research or language learning purposes only