» » »

Gregory And The Hawk - Bravo Charlie Tabs

Artists:  A B C D E F G H I J K L M N O P Q R S T U V W X Y Z # 

Bravo Charlie Tabs

(ver. 3) Click to play this song!
Gregory And The Hawk
 Rating:
4.4/5 (7 votes)

 Bravo Charlie lessons Tabs too difficult? Try these video lessons and learn fast
 
                Bravo Charlie

        C#         A#m
e|---------------------------------|
B|----------6--6---------2--2------|
G|----------6--6---------3--3------|
D|-------6------------3------------|
A|----4------------1---------------|
E|---------------------------------|


      F#           G#
e|---------------------------------|
B|-----------------------4---------|
G|----------3--3---------5--5------|
D|----------4--4------------6------|
A|-------4------------6------------|
E|----2------------4---------------|

Enjoy!
            
Submit corrections


        Bravo Charlie lessons Hard to play? Try these video lessons and learn fast Bravo Charlie lessons
        
↑ Back to top | Tablatures and chords for acoustic guitar and electric guitar, ukulele, drums are parodies/interpretations of the original songs. You may use it for private study, scholarship, research or language learning purposes only