Home » G » Gregory And The Hawk »

Gregory And The Hawk - A Wish Tabs

Artists:  A B C D E F G H I J K L M N O P Q R S T U V W X Y Z # 

A Wish Tabs

(ver. 1) Click to play this song!
Gregory And The Hawk
 Rating:
4/5 (12 votes)
                me who tabbed the first "The Bolder Thing To Do" TAB, so if you have any questions on 
feel free to drop me an email.)

Intro and Verse:
-----------------------------------------|
-------6--------6--------4--------6------|
-----------------------------------------|
-----8---8----8---8----5---5----8---8----| etc.
---6--------5--------3--------5----------|
-----------------------------------------|

Chorus:
-----------------------------------------|
-------6--------6--------6--------6------|
-----------------------------------------|
-----8---8----8---8----8---8----8---8----|  etc.
---6--------5--------4-------------------|
------------------------------6----------|

Bridge:
--------------------|
---6---4---6---4----|
--------------------|
---8---5---8---5----| etc.
---5---3---5---3----|
--------------------|
            
Submit corrections

↑ Back to top | Tablatures and chords for acoustic guitar and electric guitar, ukulele, drums are parodies/interpretations of the original songs. You may use it for private study, scholarship, research or language learning purposes only