» » »

Gregory And The Hawk - Avalanche Oh Avalanche Tabs

Artists:  A B C D E F G H I J K L M N O P Q R S T U V W X Y Z # 

Avalanche Oh Avalanche Tabs

(ver. 2) Click to play this song!
Gregory And The Hawk
 Rating:
4/5 (4 votes)

 Avalanche Oh Avalanche lessons Tabs too difficult? Try these video lessons and learn fast
 
                This song is easy.
Standard tuning.
Capo on 4th.
strumming patterns not shown.

intro:
   Am  D  Am   D
e|-----2-------2-------------|
B|-1---3---1---3-------------|
G|-2---2---2---2-------------|
D|-2-------2-----------------|
A|---------------------------|
E|---------------------------|

This is basicly the rest of the song:

   Am  D   G
e|-----3---3-----------------|
B|-1---3---------------------|
G|-2---2---------------------|
D|-2-------------------------|
A|---------2-----------------|
E|---------3-----------------|

any corrections [which I don't think their should be...if there is it just shows how 
I suck at tabbing haha] comment and tell me.

and if you've got time:
I play guitar in an acoustic duo called Safety's Pin.

thanks,
Morgan
            
Submit corrections


        Avalanche Oh Avalanche lessons Hard to play? Try these video lessons and learn fast Avalanche Oh Avalanche lessons
        
↑ Back to top | Tablatures and chords for acoustic guitar and electric guitar, ukulele, drums are parodies/interpretations of the original songs. You may use it for private study, scholarship, research or language learning purposes only