» » »

Gregory Alan Isakov - 3am Tabs

Artists:  A B C D E F G H I J K L M N O P Q R S T U V W X Y Z # 

3am Tabs

(ver. 1) Click to play this song!
Gregory Alan Isakov
 Rating:
4/5 (4 votes)

 3am lessons Tabs too difficult? Try these video lessons and learn fast
 
                i was realy p**sed off because this lovely song has no tabs\chord all over the 
internet... so i tried to do it myself.. its not perfect thats for sure...
but i can truly say i worked realy hard for it. because im realy a novice.
and gregory have such a uniqe style..
any way, there is just one part i couldnt done i tried.. its the middle part... if any 
one see this post. so try to uncover it and tell me.

enjoy!


capo 3rd!


    C                     Am
e|---------3-------1---------------------------------------------------|
B|--1----------------------0------0h1------1-------------1-------------|
G|-----0----------------------0--------0h2----2---0h2------------------|
D|-------------2-------2-----------------------------------------------|
A|--3-----------------------------0------------------------------------|
E|---------------------------------------------------------------------|


e|------------------------1--0---------------------------3-------------|
B|--1---------1-----------------1-------3--1---------------------------|
G|--2---0h2-----2------------------------------------------------------|
D|--3----------------3--------------0-----------0----------------------|
A|--3---------------------------3---------------2---2------------------|
E|----------------------------------------------3----------------------|

      C
e|----3-----------3----1-----------------------------------------------|
B|---------1----------------0-----------0--0h1------1--1---------------|
G|------------0--------0------------0--------0h2-----------------------|
D|-------------------------------2-------------------------------------|
A|----3------------------------------------0---------------------------|
E|---------------------------------------------------------------------|

e|--------0------5-----------------------------------------------------|
B|-----3-------------5----1---------3---1----1-------------------------|
G|--2------------------------------------------------------------------|
D|------------------------2-----2------------0-------------------------|
A|------------------------3------------------2----------0h2p0h2--------|
E|---------------5----3----------------------3-----0h3------------3--3~|


e|---3---3----------3---1---------1--0-------0-------------------------|
B|-----------0--------------0-----------0---------3--------------------|
G|--------------0--------------0----------0----------------------------|
D|---------------------------------------------------------------------|
A|---------------------------------------------------------------------|
E|-------3--------------3------------3------------3--------------------|


C              G                Am         G          F
Well, it's 3AM again, like it always seems to be
C                  G             Am              G   F
Driving northbound, driving homeward, driving wind is driving me.
C                 G               Am    G        F
It just seems so funny how I always end up here
C                  G            Am      G       F
Walking outside in a storm while looking way up past the treeline
G
It's been some time


*
*
*
        Am              F               C                 G
Give me darkness when I'm dreaming, give me moonlight when I'm leaving,
Am              F               C        G
Give me shoes that weren't made for standing.
 Am                     F               C
Give me treeline, give me big sky, give me snowbound,
        G         Am    G   F           G
Give me rainclouds, give me bedtime just sometimes

*
*
*
            
Submit corrections


        3am lessons Hard to play? Try these video lessons and learn fast 3am lessons
        
↑ Back to top | Tablatures and chords for acoustic guitar and electric guitar, ukulele, drums are parodies/interpretations of the original songs. You may use it for private study, scholarship, research or language learning purposes only