Home » G » Great Big Sea »

Great Big Sea - The Night Pat Murphy Died Bass

Artists:  A B C D E F G H I J K L M N O P Q R S T U V W X Y Z # 

The Night Pat Murphy Died Bass

(ver. 1) Click to play this song!
Great Big Sea
[Chorus 1]
 
G|-----------------|-----------------|-----------------|-----------------|
D|-----------------|-----7-----------|-----------------|-----7-----------|
A|-----7-------7---|-5-----------7---|-----7-------4---|-5-------7---5---|
E|-5-------5-------|---------5-------|-5-------2-------|-----------------|
 
G|-----------------|-----------------|-----------------|-----------------|
D|-----------------|-----7-----------|-----------------|-----------------|
A|-----7-------7---|-5-----------7---|-----------------|-5---7-----------|
E|-5-------5-------|---------5-------|-5---4---2---0---|---------5---5---|
 
[Interlude] Last bar 2/4
 
G|-----------------|-----------------|-----------------|---------|
D|-0---2---4-------|-2---------------|-0---2---4-------|-2-------|
A|-----------------|-----5-----------|-----------------|-----5---|
E|-------------2---|---------5---5---|-------------2---|---------|
 
[Verse 2]
 
G|-----------------|-----------------|-----------------|-----------------|
D|-----------------|-----7-----------|-----------------|-----7-----------|
A|-----7-------7---|-5-----------7---|-----7-------4---|-5-------7---5---|
E|-5-------5-------|---------5-------|-5-------2-------|-----------------|
 
G|-----------------|-----------------|-----------------|-----------------|
D|-----------------|-----7-----------|-----------------|-----------------|
A|-----7-------7---|-5-----------7---|-----------------|-5---7-----------|
E|-5-------5-------|---------5-------|-5---4---2---0---|---------5---0---|
 
 
[Chorus 2]
 
G|-----------------|-----------------|-----------------|-----------------|
D|-----------------|-----7-----------|-----------------|-----7-----------|
A|-----7-------7---|-5-----------7---|-----7-------4---|-5-------7---5---|
E|-5-------5-------|---------5-------|-5-------2-------|-----------------|
 
G|-----------------|-----------------|-----------------|-----------------|
D|-----------------|-----7-----------|-----------------|-----------------|
A|-----7-------7---|-5-----------7---|-----------------|-5---7-----------|
E|-5-------5-------|---------5-------|-5---4---2---0---|---------5---5---|
 
[Interlude] Last bar 2/4
 
G|-----------------|-----------------|-----------------|---------|
D|-0---2---4-------|-2---------------|-0---2---4-------|-2-------|
A|-----------------|-----5-----------|-----------------|-----5---|
E|-------------2---|---------5---5---|-------------2---|---------|
 
[Verse 3]
 
G|-----------------|-----------------|-----------------|-----------------|
D|-----------------|-----7-----------|-----------------|-----7-----------|
A|-----7-------7---|-5-----------7---|-----7-------4---|-5-------7---5---|
E|-5-------5-------|---------5-------|-5-------2-------|-----------------|
 
G|-----------------|-----------------|-----------------|-----------------|
D|-----------------|-----7-----------|-----------------|-----------------|
A|-----7-------7---|-5-----------7---|-----------------|-5---7-----------|
E|-5-------5-------|---------5-------|-5---4---2---0---|---------5---0---|
 
[Chorus 3]
 
G|-----------------|-----------------|-2---1-----------|-----------------|
D|-----------------|-----7-----------|---------4---2---|-----------------|
A|-----7-------7---|-5-----------7---|-----------------|-5---4---2-------|
E|-5-------5-------|---------5-------|-----------------|-------------4---|
 
G|-----------------|-----------------|-----------------|-----------------|
D|-----------------|-----7-----------|-----------------|-----------------|
A|-----7-------7---|-5-----------7---|-----------------|-5---7-----------|
E|-5-------5-------|---------5-------|-5---4---2---0---|---------5-------|
 
[Bridge]
 
G|-----------------|-----------------|-----------------|-----------------|
D|-----------------|-----7-------9---|-----------------|-----------------|
A|-----7-------7---|-5-------7-------|-9---------------|-5---7-------7---|
E|-5-------5-------|-----------------|---------2-------|---------5-------|
 
G|-----------------|-----------------|-----------------|-----------------|
D|-----------------|-----7-------9---|-7-7-------------|-----------------|
A|-----7-------7---|-5-------7-------|-----------------|-5---7-----------|
E|-5-------5-------|-----------------|-----x---2-------|---------5-------|
 
[Verse 4]
 
G|-----------------|-----------------|-----------------|-----------------|
D|-----------------|-----7-----------|-----------------|-----7-----------|
A|-----7-------7---|-5-----------7---|-------------4---|-5-------7---5---|
E|-5-------5-------|---------5-------|-5---4---2-------|-----------------|
 
G|-----------------|-----------------|-----------------|-----------------|
D|-----------------|-----7-----------|-----------------|-----------------|
A|-----7-------7---|-5-----------7---|-----------------|-------------7---|
E|-5-------5-------|---------5-------|-5---------------|-----------------|
 
[Chorus 4]
 
G|-----------------|-----------------|-----------------|-----------------|
D|-----------------|-----7-----------|-----------------|-----7-----------|
A|-----7-------7---|-5-----------7---|-------------4---|-5-------7-------|
E|-5-------5-------|---------5-------|-5---4---2-------|-------------5---|
 
G|-----------------|-----------------|-----------------|-----------------|
D|-----------------|-----7-----------|-----------------|-----------------|
A|-----7-------7---|-5-----------7---|-----------------|-5---7-----------|
E|-5-------5-------|---------5-------|-5---4---2---0---|---------5-----5-|
 
[Interlude 2] Last bar 2/4
 
G|-----------------|----------------|------------------|---------|
D|-0---2---4-------|-2---0----------|-0---2---4--------|---------|
A|-----------------|---------0----0-|------------------|-7-------|
E|---------------2-|----------------|----------------2-|-----5---|
 
[Verse 5]
 
G|-----------------|-----------------|-----------------|-----------------|
D|-----------------|-----7-----------|-----------------|-----7-----------|
A|-----7-------7---|-5-----------7---|-------------4---|-5-------7---5---|
E|-5-------5-------|---------5-------|-5---4---2-------|-----------------|
 
G|-----------------|-----------------|-----------------|-----------------|
D|-----------------|-----7-----------|-----------------|-----------------|
A|-----7-------7---|-5-----------7---|-----------------|-5---7-----------|
E|-5-------5-------|---------5-------|-5---4---2---0---|---------5---0---|
 
[Chorus 5]
 
G|-----------------|-----------------|-----------------|-----------------|
D|-----------------|-----7-----------|-----------------|-----7-----------|
A|-----7-------7---|-5-----------7---|-------------4---|-5-------7-------|
E|-5-------5-5-----|---------5-------|-5---4---2-------|-------------5---|
 
G|-----------------|-----------------|-----------------|-----------------|
D|-----------------|-----7-----------|-----------------|-----------------|
A|-----7-------7---|-5-----------7---|-----------------|-5---7-------7---|
E|-5-------5-------|---------5-------|-5---4---2---0---|---------5-------|
 
[Outro]
 
G|-----------------|-----------------|
D|-----------------|-----------------|
A|-----------------|-5---7-----------|
E|-5---4---2---0---|---------5-------|
            
Submit corrections

↑ Back to top | Tablatures and chords for acoustic guitar and electric guitar, ukulele, drums are parodies/interpretations of the original songs. You may use it for private study, scholarship, research or language learning purposes only