» » »

Great Big Sea - Feel It Turn Tabs

Artists:  A B C D E F G H I J K L M N O P Q R S T U V W X Y Z # 

Feel It Turn Tabs

(ver. 1) Click to play this song!
Great Big Sea
 Rating:
4/5 (4 votes)

 Feel It Turn lessons Tabs too difficult? Try these video lessons and learn fast
 
                                             FEEL IT TURN – Great Big Sea
-------------------------------------------------------------------------------

Tuning: Standard

This is just the basic riff. You MUST add your own little ad libs for it to be
Just pretend like you’re playing a banjo. No need to fingerpick it, but you might try 
Like
lot GBS songs, it’s in G major.

INTRO (2x):
e|--------------------------5---------------------------------3--------------------|
B|------------------------------5---------------------------------3----------------|
G|------------------0---------------0----------------0------------------0----------|
D|---------------------------------------------------------------------------------|
A|---------5---------------------------------3-------------------------------------|
E|---------------------------------------------------------------------------------|

e|---------------------------3----------------------------------3------------------|
B|---------------------------------3---------------------------------3-------------|
G|-------------------0------------------0---------------0------------------0-------|
D|---------------------------------------------------------------------------------|
A|---------2----------------------------------0------------------------------------|
E|---------------------------------------------------------------------------------|


Verse 1:

G                       D
Had a dream I was moving forward,

G                           D
Moving gently to the sun,

G                         D
Come to see my world rewarded,

C9                          G
A new day has begun.

(Hold G)

G                                  D
Lost bird caught in mid-migration,
G                    D
Far away to foreign land,

G                     D
Offspring of a secret nation,

C9                           G
A new day has begun.

Chorus:

Bm   Em
I can see,
       C                   G
The earth below me,

     Em C   D       G          D
And I can feel it turn.

           C9              D
Feel it tu-u-urn,

            G             D
Feel it turn,
           C9             D
Feel it tu-u-urn,

Verse 2:

G                           D
Fog lifts to reveal potential,

       G                     D
For generations prophesized,

G                      D
Hard growth to be exponential,

        C9                       G
The promise is finally realized.

Chorus

Bridge:

            Em
Feel it turn,

                   D
Across the sky,

        C9
The world it meant,

                 D
So much more…

(Play intro riff leading into the next verse)

G                                D
Cut, Steel wired into water,

G                                 D
Fixed link circumnavigate,

G                                    D
Old men see sons and daughters,

      C9
No longer,

                 G
No longer hinting (?)

Chorus and Fade.

Q.E.D

Enjoy!
            
Submit corrections


        Feel It Turn lessons Hard to play? Try these video lessons and learn fast Feel It Turn lessons
        
↑ Back to top | Tablatures and chords for acoustic guitar and electric guitar, ukulele, drums are parodies/interpretations of the original songs. You may use it for private study, scholarship, research or language learning purposes only