» » »

Grease - Hopelessly Devoted To You Bass

Artists:  A B C D E F G H I J K L M N O P Q R S T U V W X Y Z # 

Hopelessly Devoted To You Bass

(ver. 2) Click to play this song!
Grease
 Rating:
4/5 (4 votes)

 Hopelessly Devoted To You lessons Tabs too difficult? Try these video lessons and learn fast
 
                Tuning: Standard (E A D G) 


For the record I´m not a Grease fan, this is just a school project. ;)

Intro:
G|--------------------------------------------|
D|----------------------------------------5-7-|
A|-5---5-4-0---0-4-5---5-4-0---0-4-5-7-8------| 
E|--------------------------------------------|

Verse:
G|----------------------------------------------------------|
D|------------------------------------------0-4-5-7---4-----|
A|-0---0-2-4---5---0-4-5---5-4-2---0-4-5-7--------------7-0-| 
E|----------------------------------------------------------| 

G|-----------------------------------------| 
D|-----------2-4-----4-5------5-4----------| 
A|-----0---4-------4--------4------------2-|
E|-0-2-------------------------------0-2---|  

G|----------------------------------| 
D|---------------------------2------| 
A|--4-5-2---4-5-4---5-4-2-------2---| 
E|--------------------------------0-| 

Verse 2:
G|----------------------------------------------------------|
D|------------------------------------------0-4-5-7---4-----|
A|-0---0-2-4---5---0-4-5---5-4-2---0-4-5-7--------------7-0-| 
E|----------------------------------------------------------| 

G|-----------------------------------------| 
D|-----------2-4-----4-5------5-4----------| 
A|-----0---4-------4--------4------------2-|
E|-0-2-------------------------------0-2---|  

G|-----------------------------| 
D|---------------------------2-| 
A|--4-5-2---4-5-4---5-4-2------| 
E|-----------------------------|  

Bridge: 
G|---------------| 
D|-------5-7/----| 
A|-5-7-8-------0-| 
E|---------------| 

Chourus: 
G|------------------------------------------------| 
D|--------------------------------0-2-3----0----3-| 
A|-----0-1-----0-1-------0-1-3---------------3----| 
E|-3--------3-------3-----------------------------| 

G|-----2----2----------------------------------| 
D|-5-3-----------------------------------------| 
A|------------0-5----5-3-3-------0-1-----0-1---| 
E|--------------------------3--------3-------3-| 

G|-------------------------------------------| 
D|-------------------------------------------| 
A|-0-1-3------3-5----0-5-4----0-5-3----0-5-2-| 
E|----------3--------------------------------| 

G|-----------------------------| 
D|------------------------5-7~-| 
A|-2-0-------0-1-3--5-7-8------| 
E|------3----------------------| 

Verse 3:
G|----------------------------------------------------------|
D|------------------------------------------0-4-5-7---4-----|
A|-0---0-2-4---5---0-4-5---5-4-2---0-4-5-7--------------7-0-| 
E|----------------------------------------------------------| 

G|-----------------------------------------| 
D|-----------2-4-----4-5------5-4----------| 
A|-----0---4-------4--------4------------2-|
E|-0-2-------------------------------0-2---|  

G|----------------------------------| 
D|---------------------------2------| 
A|--4-5-2---4-5-4---5-4-2-------2---| 
E|--------------------------------0-|   

Chourus: 
G|------------------------------------------------| 
D|--------------------------------0-2-3----0----3-| 
A|-----0-1-----0-1-------0-1-3---------------3----| 
E|-3--------3-------3-----------------------------| 

G|-----2----2----------------------------------| 
D|-5-3-----------------------------------------| 
A|------------0-5----5-3-3-------0-1-----0-1---| 
E|--------------------------3--------3-------3-| 

G|-------------------------------------------| 
D|-------------------------------------------| 
A|-0-1-3------3-5----0-5-4----0-5-3----0-5-2-| 
E|----------3--------------------------------| 

G|-----------------------------| 
D|------------------------5----| 
A|-2-0-------0-1-3--5-7-8---8~-| 
E|------3----------------------|
            
Submit corrections


        Hopelessly Devoted To You lessons Hard to play? Try these video lessons and learn fast Hopelessly Devoted To You lessons
        
↑ Back to top | Tablatures and chords for acoustic guitar and electric guitar, ukulele, drums are parodies/interpretations of the original songs. You may use it for private study, scholarship, research or language learning purposes only