Home » G » Gravity Kills »

Gravity Kills - Here Tabs

Artists:  A B C D E F G H I J K L M N O P Q R S T U V W X Y Z # 

Here Tabs

(ver. 1) Click to play this song!
Gravity Kills
Effects: Distortion
**Let all notes ring.**

Riff 1
c# -|-----------------------------------------------------------------|
G# -|-----------------------------------------------------------------|
E  -|-----------------------------------------------------------------|
B  -|-7---------------5---------------7---------------5---------------|
F# -|-7---------------5---------------7---------------5---------------|
C# -|-5---------------3---------------5---------------3---------------|

c# -|-----------------------------------------------------------------|
G# -|-----------------------------------------------------------------|
E  -|-5---------------7---------------------------------------5-------|
B  -|-5---------------7---------------7---------------8-------5-------|
F# -|-3---------------5---------------7---------------8-------3-------|
C# -|---------------------------------5---------------6---------------|

Song Structure:
Riff 1: 1:05 x1
pause : 1:26
Riff 1: 1:47 x1
pause : 2:09
Riff 1: 2:51 x2
pause : 3:34
            
Submit corrections

↑ Back to top | Tablatures and chords for acoustic guitar and electric guitar, ukulele, drums are parodies/interpretations of the original songs. You may use it for private study, scholarship, research or language learning purposes only