» » »

Grandaddy - Crystal Lake Tabs

Artists:  A B C D E F G H I J K L M N O P Q R S T U V W X Y Z # 

Crystal Lake Tabs

(ver. 2) Click to play this song!
Grandaddy
 Rating:
4/5 (4 votes)

 Crystal Lake lessons Tabs too difficult? Try these video lessons and learn fast
 
                -------------------------------------------------------------------------------

Tuning: Standard (EADGBe)


Intro:
Guitar 1
|------------------------------------------------------|
|------------------------------------------------------|
|-----5--4-----5--4----4--5-----5--4-----5--4----4--5--|
|--2-------2---------2-------3-------3---------3-------|
|------------------------------------------------------|
|------------------------------------------------------|

Guitar 2
|-----------------------------------------------|
|-----------------------------------------------|
|--5--------------------------------------------|
|--5- x16 ----3-----------7-----------3---------|
|--3----------3- x 16 ----7- x 16 ----3- x 16 --|
|-------------1-----------5-----------1---------|


Verse:
|---------------------------------------------------------|
|---------------------------------------------------------|
|--5----------------------7-------------------------------|
|--5- x16 ----4-----------7- x 16 ----2-----------5-------|
|--3----------4- x 16 ----5-----------2- x 12 ----5- x 4--|
|-------------2-----------------------1-----------3-------|


Pre-chorus:
|-----------------------------------------------|
|-----------------------------------------------|
|--5----------------------7---------------------|
|--5- x16 ----4-----------7- x 16 ----2---------|
|--3----------4- x 16 ----5-----------2- x 12 --|
|-------------2-----------------------1---------|


Chorus:
|------------------------|
|------------------------|
|------------------------|  x 3
|--8-----------6---------|
|--8- x 16 ----6- x 16 --|
|--6-----------4---------|

|-----------------------------------------------------|
|-----------------------------------------------------|
|-----------------------------------------------------|
|--8-----------2----------2----------5-----------6~~--|
|--8- x 16 ----2- x 4 ----2- x 12----5- x 16 ----6~~--|
|--6-----------4----------1----------3-----------4~~--|


Intro
Verse
Pre-chorus
Chorus

Outro:
Guitar 1
|------------------------|
|------------------------|
|--5---------------------|
|--5- x 16 ----3---------|
|--3-----------3- x 16 --|
|--------------1---------|

Guitar 2
|-----------------------------------------------|
|-----------------------------------------------|
|-----------------------------------------------|
|-----------------------------------------------|
|-7-8-10-/13---11-11---10-10---8-8---7-7--------|
|-----------------------------------------------|


Repeat, end on -355-- and -7----
            
Submit corrections


        Crystal Lake lessons Hard to play? Try these video lessons and learn fast Crystal Lake lessons
        
↑ Back to top | Tablatures and chords for acoustic guitar and electric guitar, ukulele, drums are parodies/interpretations of the original songs. You may use it for private study, scholarship, research or language learning purposes only