Home » G » Graham Nash »

Graham Nash - Another Sleep Song Chords

Artists:  A B C D E F G H I J K L M N O P Q R S T U V W X Y Z # 

Another Sleep Song Chords

(ver. 1) Click to play this song!
Graham Nash
[Intro]
e |-------------------|------------------| [x7]
B |--5--3--5--3-0--1--|------------------|
G |--5--4--5--4-0--2--|--0-h2------------|
D |-------------------|--0-h2------------|
A |-------------------|------------------|
E |-------------------|------------------|

         Asus2
e |-------0-0--0-0--0---------| [x4]
B |-------0-0--0-0--0---------|
G |-------2-2--2-2--2---------|
D |-------2-2--2-2--2------0--|
A |--0-----------------0-3----|
E |---------------------------|


[Verse 1]
Asus2                         Fmaj7#11  F
 All I need is someone to a - waken---  me,
G6
Much of me has gone to sleep,
    A4             Am
And I'm afraid to wake up,
Asus2                           Fmaj7#11        F
Shake me by the shoulder if I'm lying with you now,
        G6
When I talk about the time I sleep away,
C             C/B              Am
    When it's hard to face the day------! 

  Fmaj7#11        G6
|  /  /  /  /  |  /  /  /  /  |


[Verse 2]
         Asus2
e |-------0-0--0-0--0---------| [x4]
B |-------0-0--0-0--0---------|
G |-------2-2--2-2--2---------|
D |-------2-2--2-2--2------0--|
A |--0-----------------0-3----|
E |---------------------------|


Asus2                               Fmaj7#11  F
When I think of all the love that's taken---  me,
G6                             A4                 Am
How much do I get to keep, and how much should I give up?
Asus2                            Fmaj7#11       F
 Shake me by the shoulders if I'm lying to you now,
       G6                            C
I'm listening to the lies inside my head,
        C/B              Am
Who can hurt you in your bed-------?

  Fmaj7#11        G6
|  /  /  /  /  |  /  /  /  /  |


[Bridge]
 Em                         F *   Fsus2 F *
Fear of other people is a thing I hate,
   Em                        F *
I travel in a bubble, and I can't relate,
   Em                  F *    Fsus2 F *
Something is happening to my head,
   Em
I don't wanna hurt you,
        F          Fmaj7#11   Am
But I never heard a word you said!

  Am                             A4
|  /  /  /  /  |  /  /  /  /  |  /  /  /  /  |  /  /  /  /  |


[Verse 3]
Asus2                              Fmaj7#11  F
 Has this empty hollow heart for - saken---  me?
   G6
I wonder if I'll ever get to feel like I did...
A4               Am
    ...Before I grew up,
Asus2                            Fmaj7#11        F
Shake me by the shoulders if I'm lying with you now,
      G6
There is no time to waste another day,
C             C/B              Am
   'Cause we watch 'em fly a - way!

  Fmaj7#11        G6
|  /  /  /  /  |  /  /  /  /  |


[Coda]
         Asus2
e |-------0-0--0-0--0---------| [Repeat- end on Asus2]
B |-------0-0--0-0--0---------|
G |-------2-2--2-2--2---------|
D |-------2-2--2-2--2------0--|
A |--0-----------------0-3----|
E |---------------------------|            
Submit corrections

↑ Back to top | Tablatures and chords for acoustic guitar and electric guitar, ukulele, drums are parodies/interpretations of the original songs. You may use it for private study, scholarship, research or language learning purposes only