» » »

Graham Coxon - Walking All Day solo Tabs

Artists:  A B C D E F G H I J K L M N O P Q R S T U V W X Y Z # 

Walking All Day solo Tabs

(ver. 1) Click to play this song!
Graham Coxon
 Rating:
4.4/5 (17 votes)

 Walking All Day solo lessons Tabs too difficult? Try these video lessons and learn fast
 
                e|---------------3---------------------------------|
B|-1/5-5-5-5-5-5---5-5-3-5-1-0-1/5-----------------|
G|-------------------------------------------------|
D|-------------------------------------------------|
A|-------------------------------------------------|
E|-------------------------------------------------|


e|--------------3-------------------------------------|
B|1/5-5-5-5-5-5---5-5-3-5-1-0-----3-5-1-0-1-1/13------|
G|-----------------------------2----------------------|
D|----------------------------------------------------|
A|----------------------------------------------------|
E|----------------------------------------------------|

            
Submit corrections


        Walking All Day solo lessons Hard to play? Try these video lessons and learn fast Walking All Day solo lessons
        
↑ Back to top | Tablatures and chords for acoustic guitar and electric guitar, ukulele, drums are parodies/interpretations of the original songs. You may use it for private study, scholarship, research or language learning purposes only