Home » G » Graham Coxon »

Graham Coxon - Tell It Like It Is Tabs

Artists:  A B C D E F G H I J K L M N O P Q R S T U V W X Y Z # 

Tell It Like It Is Tabs

(ver. 1) Click to play this song!
Graham Coxon
 Rating:
3.8/5 (5 votes)
                BAND: GRAHAM COXON

standard tuning
.palm muted
b bend

intro:

e|---------------------------------------------------------------|
b|---------------------------------------------------------------|
g|---------------------------------------------------------------|
d|--7------------------------------------------------------------|
a|--7------------------------------------------------------------|
E|--5------------------------------------------------------------|
   .palm muted x 25 + 5 normal

verse:

e|-------------------------------------------------------------|
b|-------------------------------------------------------------|
g|-------------------------------------------------------------|
d|--7-------------4----------------7---------------------------|
a|--7---x14-------4-----x8---------7----x8---------------------|
E|--5-------------2----------------5---------------------------|
    .             .                .

e|--------------------------------------------------------------|
b|---------------------------------5----------------------------|
g|--------------------------------6---6-------------------------|
d|--7-------------4-------------7-------------------------------|
a|--7---x14-------4---x8------7---------------------------------|
E|--5-------------2---------------------------------------------|

pre chorus:

e|--2-------------5--------------------------------------------|
b|--3-------------5--------------------------------------------|
g|--4-------------6--------------------------------------------|
d|--4-------------7--------------------------------------------|  x2
a|--2---x8--------7---x8---------------------------------------|
E|--2-------------5--------------------------------------------|

chorus:

e|-------------------------------------------------------------|
b|-------------------------------------------------------------|
g|-------------------------------9-----------------------------|
d|--9-------------7--------------9---x4------------------------|x3
a|--9--x8---------7---x4---------7-----------------------------|
E|--7-------------5--------------------------------------------|

e|-------------------------------------------------------------|
b|-------------------------------------------------------------|
g|-------------------------------9-------------------9---------|
d|--9-------------7--------------9--x4-----9----7----7---------|x1
a|--9--x8---------7--x4----------7---------9----7----7------9--|
E|--7-------------5------------------------7----5-----------7--|

-repeat intro x1

-repeat verse x1

-repeat pre chorus x1

-repeat chorus x1

-repeat intro x1

solo :

e|------------------------------------------------------------|
b|------------------------------------------------------------|
g|-------9b---------------------------------------------------|
d|--9b-------9b----9p8-9-8---9--------------------------------|
a|-------------------------9---9b-----------------------------|
E|------------------------------------------------------------|

e|-----------------5---------8b7~-----------------------------|
b|-----------------5------------------------------------------|
g|-------9b--------6------------------------------------------|
d|--9b-------9b----7--x6--------------------------------------|
a|-----------------7------------------------------------------|
E|-----------------5------------------------------------------|

-repeat pre chorus x2

-repeat chorus x1

the end

it's my first tab!!!
cheers!
            
Submit corrections

↑ Back to top | Tablatures and chords for acoustic guitar and electric guitar, ukulele, drums are parodies/interpretations of the original songs. You may use it for private study, scholarship, research or language learning purposes only