» » »

Graham Coxon - Right To Pop Tabs

Artists:  A B C D E F G H I J K L M N O P Q R S T U V W X Y Z # 

Right To Pop Tabs

(ver. 1) Click to play this song!
Graham Coxon
 Rating:
4/5 (4 votes)

 Right To Pop lessons Tabs too difficult? Try these video lessons and learn fast
 
                ----------------------------------------------------------------------------
----------------------------------------------------------------------------

Tuning: Standard 



Verse:
------

  I been pointing in the wrong direction....
     B     E  B     E  B       G  F# E
e|---------------------------------------------|
B|---------------------------------------------|   Repeat for rest of verse
G|---------9--------9----------------9---------| - dont hit the last E when
D|---99999-9--99999-9--9999999955554-9---------|   entering the chorus 
A|---99999-7--99999-7--9999999955554-7---------|   i.e. don't play it twice
E|---77777----77777----7777777733332-----------|


Chorus:
-------

  You've got a higher entry now
     E          G      F#    D#
e|---------------------------------------------|
B|---------------------------------------------|
G|---9----------12-----11----8-----------------|
D|---9----------12-----11----8-----------------|
A|---7----------10-----9-----6-----------------|
E|---------------------------------------------|

  You've got the right to pop!
     B            C#       D#
e|---------------------------------------------|
B|---------------------------------------------|
G|---------------------------------------------|
D|---9------------11-------13------------------|
A|---9------------11-------13------------------|
E|---7------------9--------11------------------|

  Your drinks are compliment'ry now
         E          G      F#    D#
e|---------------------------------------------|
B|---------------------------------------------|
G|-------9----------12-----11----8-------------|
D|-------9----------12-----11----8-------------|
A|-------7----------10-----9-----6-------------|
E|---------------------------------------------|

  And yer records are in charity shops
           D               C#               E
e|---------------------------------------|-----|
B|---------------------------------------|-----|   The C# should be hit 
G|---------7-7-7-7-7-7-7---6-------------|--9--| - once on "shops" then 
D|---------7-7-7-7-7-7-7---6-------------|--9--|   stop for a second then 
A|---------5-5-5-5-5-5-5---4-------------|--7--|   Hit the E before 
E|---------------------------------------|-----|   starting the verse again


..I think that's about it listen to song for timing
            
Submit corrections


        Right To Pop lessons Hard to play? Try these video lessons and learn fast Right To Pop lessons
        
↑ Back to top | Tablatures and chords for acoustic guitar and electric guitar, ukulele, drums are parodies/interpretations of the original songs. You may use it for private study, scholarship, research or language learning purposes only