» » »

Graham Coxon - If You Want Me Tabs

Artists:  A B C D E F G H I J K L M N O P Q R S T U V W X Y Z # 

If You Want Me Tabs

(ver. 1) Click to play this song!
Graham Coxon
 Rating:
4.4/5 (7 votes)

 If You Want Me lessons Tabs too difficult? Try these video lessons and learn fast
 
                -------------------------------------------------------------------------------
-------------------------------------------------------------------------------

Tuning: Standard

e|----------0~------------0----------------|
b|------1-3---3~--------3---1-0h1p0--------|
g|------2-------1-------3---2-------2------|
d|----3-----------2---3---------------2----|
a|------------------1-------0~-------------|
e|--1-------0~-------------------------3*--|

e|------------0~-------^------------------|
b|--------1-3---3~-----3-----1-1h2--------|
g|------2---------1----3-3-----2---2------|
d|----3-------------2--3---3---------2----|
a|---------------------1-------0-------0--|
e|--1---------0~--------------------------|

x 2

e|------------^---------------------------------#----------|
b|------6-6-8-5-------------------8-7-7-----6-6-------7-7--|
g|------7-7-7-5-5-----------------8-8-8-----7-7-----7---7--|
d|----8---8---7---7-------------8---8-8---8---8---7-----7--|
a|------------------7---------6-----------------5----------|
e|--6---------5-------5-3-1-0-----------6-------#----------|

x 2

off Graham's forums.

chorded by Kae Verens

F  E  Bb  Am
F  E  Bb  A
F  E  Bb  Am
F  E  Bb  A
Bb Bb Am Am
D# D#m Bb D
Bb Bb Am Am
D# D#m Bb Gm
F# D#
D# (x4)

F        E      Bb         Am
  If you want me, come and get me
F        E        Bb        A
  If you want me, you'll be there
F        E        Bb       Am
  In the daytime,   in the night time
F      E         Bb   A
  Over here and, over there

Bb           Am
  It's oh so serious
D#     D#m   Bb    D
  It's oh so lame
Bb           Am
  I'm half delirious,
D#         D#m     Bb    Gm
  when you call my name

F#  D#
D# (x4)
F  E  Bb  Am
F  E  Bb  A
F  E  Bb  Am
F  E  Bb  A

F        E       Bb         Am
  If you want me,  come and get me
F        E        Bb        A
  If you want me, you'll be there
F        E       Bb       Am
  In the daytime,  in the night time
F      E         Bb   A
  Over here and, over there

Bb           Am
  It's oh so serious
D#     D#m   Bb   D
  It's oh so lame
Bb           Am
  I'm half delirious,
D#         D#m     Bb   Gm
  when you call my name

F#  D#
D# (x4)
F  E  Bb  Am
F  E  Bb  A
F  E  Bb  Am
F  E  Bb  A

Bb           Am
  It's oh so serious
D#     D#m   Bb   D
  It's oh so lame
Bb           Am
  I'm half delirious,
D#         D#m     Bb   Gm
  when you call my name

F        E       Bb          Am
  If you want me,   come and get me
F        E        Bb        A
  If you want me, you'll be there

F  F#  C# Bb
F  F#  G   C#

Bb           Am
  It's oh so serious
D#     D#m   Bb
  It's oh so lame
            
Submit corrections


        If You Want Me lessons Hard to play? Try these video lessons and learn fast If You Want Me lessons
        
↑ Back to top | Tablatures and chords for acoustic guitar and electric guitar, ukulele, drums are parodies/interpretations of the original songs. You may use it for private study, scholarship, research or language learning purposes only