» » »

Graham Coxon - Hopeless Friend Tabs

Artists:  A B C D E F G H I J K L M N O P Q R S T U V W X Y Z # 

Hopeless Friend Tabs

(ver. 1) Click to play this song!
Graham Coxon
 Rating:
4/5 (4 votes)

 Hopeless Friend lessons Tabs too difficult? Try these video lessons and learn fast
 
                
Graham Coxon
Happiness In Magazines
Lyrics Taken From Veikko's Blur Page (vblurpage.com)


Chorus:
   D        A   D             D
e|-2~-22-----22------22---|
B|-3~-33-2~--33------33---|
G|-2~-22-2~--22------22---|
D|-0~-00-2~--00------00---|
A|-------0~-----0243------|
E|------------------------|

   D     A   D        F  G  A    
e|-2~-22-----22-------11-33-55---|
B|-3~-33-2~--33-------11-33-55---|
G|-2~-22-2~--22-------22-44-66---|
D|-0~-00-2~--00-------33-55-77---|
A|-------0~-----02435-33-55-77---|
E|--------------------11-33-55---|
Pm                           ________

Verse:
   C                       D          D#
e|-3333333333333333-55555555-66666666-----|
B|-5555555555555555-77777777-88888888-----|
G|-5555555555555555-77777777-88888888-----|
D|-5555555555555555-77777777-88888888-----|
A|-3333333333333333-55555555-66666666-----|
E|----------------------------------------|

Bridge:
(At the end of the verse)
   A
e|----------|
B|-22-------|
G|-22-------|
D|-22-------|
A|-00-2345--|
E|----------|

D                                                       A          E
You used to think about magic, and how to fit in 
D                                A            E
Now you think about madness and how to stay thin 
A              E  A              E
How to stay thin, how to stay thin






Solo:

e|--------------------------------------------|
B|-5p3-xx---xx-5p3-5-xx-5p3---7b7b7b7b-x-5----|
G|-5p3-xx-5-xx-5p3-5-xx-5p3-5-7b7b7b7b-x-5----|
D|--------5-----------------5-----------------| x2
A|--------------------------------------------|
E|--------------------------------------------|

e|--------------------------------------------------------------------------|
B|---------------------------------------------------5h6-5h6-------6h7--8-9b|
G|-5b-4---------5b-4---------5b-4---------5b-4---------------7b-8b-----8----|
D|------5p4----------5p4----------5p4----------5p4--------------------------|
A|----------5-4----------5-4----------5-4----------5------------------------|
E|--------------------------------------------------------------------------|


Lyrics:

Listen, my hopeless friend
Listen, my hopeless friend
Come inside and drop your coat 
Wash your hair, you smell like a goat

Listen, my hopeless friend
Listen, my hopeless friend
Ain't you got no shoes to wear? 
Ain't you got no blues to share?

You used to think about magic, and how to fit in 
Now you think about madness and how to stay thin 
How to stay thin, how to stay thin

Listen, my hopeless friend
Listen, my hopeless friend
Ain't you got no shoes to wear? 
Ain't you got no blues to share?

You used to think about magic, and how to fit in 
Now you think about madness and how to stay thin

You used to think about magic, and how to fit in 
Now you think about madness and how to stay thin 
How to stay thin, how to stay thin
            
Submit corrections


        Hopeless Friend lessons Hard to play? Try these video lessons and learn fast Hopeless Friend lessons
        
↑ Back to top | Tablatures and chords for acoustic guitar and electric guitar, ukulele, drums are parodies/interpretations of the original songs. You may use it for private study, scholarship, research or language learning purposes only