» » »

Graham Coxon - Advice Tabs

Artists:  A B C D E F G H I J K L M N O P Q R S T U V W X Y Z # 

Advice Tabs

(ver. 1) Click to play this song!
Graham Coxon
 Rating:
2.6/5 (25 votes)

 Advice  lessons Tabs too difficult? Try these video lessons and learn fast
 
                Tuning: Drop D

Intro

e|-----------------------------------------------------------------------12\--------------------|
B|-----------------------------------------------------------------------12\--------------------|
G|--------------------2-2---------------------14\-----------------------------------------------|
D|--5-5-5--7-8-7-5--x-----0--5-5-5--7-8-7-5---14\--5-5-5--7-8-7-5--------------5-5-5--7-8-7-5---|
A|--5-5-5--7-8-7-5-----------5-5-5--7-8-7-5--------5-5-5--7-8-7-5---xxx--------5-5-5--7-8-7-5---|
D|--5-5-5--7-8-7-5-----------5-5-5--7-8-7-5--------5-5-5--7-8-7-5---xxx--------5-5-5--7-8-7-5---|

Verse

e|---------------------------------|
B|---------------------------------|
G|---------------------------------|
D|-5-5-5--7-8-7-5------------------| X4
A|-5-5-5--7-8-7-5--0-2-0-2-0-2-0---|
D|-5-5-5--7-8-7-5--0-2-0-2-0-2-0---|

Bridge

e|-7xx7xx7xx7xx7xx7xx7xx7xx7xx7xx7xx7xx7xx7xx7-xx9-xx9-xx9-xx9-xx9-xx9-xx9-xx9----|
B|-8xx8xx8xx8xx8xx8xx8xx8xx8xx8xx8xx8xx8xx8xx8-xx10xx10xx10xx10xx10xx10xx10xx10---|
G|-7xx7xx7xx7xx7xx7xx7xx7xx7xx7xx7xx7xx7xx7xx7-xx9-xx9-xx9-xx9-xx9-xx9-xx9-xx9----|
D|--------------------------------------------------------------------------------|
A|--------------------------------------------------------------------------------|
D|--------------------------------------------------------------------------------|

e|-14-14-14-14-14-14-14-14-------------------|
B|-15-15-15-15-15-15-15-15--xx--xx--xx--xx---|
G|-14-14-14-14-14-14-14-14--xx--xx--xx--xx---|
D|-------------------------------------------|
A|-------------------------------------------|
D|-------------------------------------------|

e|------------------|
B|------------------|
G|------------------|
D|-5-5-5--7-8-7-5---| X2  Just add natural harmonics all over the place between playing this riff
A|-5-5-5--7-8-7-5---|
D|-5-5-5--7-8-7-5---|

e|---------------------------------|
B|---------------------------------|
G|---------------------------------|
D|-5-5-5--7-8-7-5------------------| X2
A|-5-5-5--7-8-7-5--0-2-0-2-0-2-0---|
D|-5-5-5--7-8-7-5--0-2-0-2-0-2-0---|

Chorus

e|------------------------------------|
B|------------------------------------|
G|------------------------------------|
D|-5-5-5-5---4---5--5-5-5-5-5---------| X12
A|-5-5-5-5-0-4-0-5--5-5-5-5-5--0--0---|
D|-5-5-5-5-0-4-0-5--5-5-5-5-5--0--0---|

Bridge

e|-------------------------------|
B|-------------------------------|
G|-------------------------------|
D|-5-5-5---------5-5-5-----------| X6
A|-5-5-5-x-x-x-x-5-5-5-x-x-x-x---|
D|-5-5-5-x-x-x-x-5-5-5-x-x-x-x---|

e|------------------|
B|------------------|
G|------------------|
D|-5-5-5--7-8-7-5---|
A|-5-5-5--7-8-7-5---|
D|-5-5-5--7-8-7-5---|            
Submit corrections


        Advice  lessons Hard to play? Try these video lessons and learn fast Advice  lessons
        
↑ Back to top | Tablatures and chords for acoustic guitar and electric guitar, ukulele, drums are parodies/interpretations of the original songs. You may use it for private study, scholarship, research or language learning purposes only