Home » G » Goth Babe »

Goth Babe - End Summer Tabs

Artists:  A B C D E F G H I J K L M N O P Q R S T U V W X Y Z # 

End Summer Tabs

(ver. 1) Click to play this song!
Goth Babe
[Intro]/[Verses]
 
e|------------------------------------|
B|------------------------------------|
G|------------------------------------|
D|------------------------------------|
A|------------------------------------|
E|-5--5--0--2--2--2--9--9--9--9--9--7-|
 
 
[Instrumental Part In Bewteen Verses]
 
e|-------------------------------------|
B|-------------------------------------|
G|-------------------------------------|
D|-------------------------------------|
A|-------------------------------------|
E|-5--5--0--2--2--2--9--9--9--9--9--7--|
 
e|-------------------------------------|
B|-------------------------------------|
G|-------------------------------------|
D|-------------------------------------|
A|7--7--9-----------7--7--7------------|
E|---------9--9--9-----------7--9--7--5|
 
 
[Instrumental at 2:40]
 
e|-----------------------------------|
B|-----------------------------------|
G|-----------------------------------|
D|-----------------------------------|
A|-----------7--7--7--9--9--9--6--6--|
E|--9--9--9--------------------------|
 
e|-----------------------------------|
B|-----------------------------------|
G|-----------------------------------|
D|-----------------------------------|
A|7--7--7--7--7--7--7--7--7--7--7--7-|
E|-----------------------------------|
            
Submit corrections

↑ Back to top | Tablatures and chords for acoustic guitar and electric guitar, ukulele, drums are parodies/interpretations of the original songs. You may use it for private study, scholarship, research or language learning purposes only