Home » G » Gorillaz »

Gorillaz - Souk Eye Bass

Artists:  A B C D E F G H I J K L M N O P Q R S T U V W X Y Z # 

Souk Eye Bass

(ver. 2) Click to play this song!
Gorillaz
0:00- 1:46 is resting.
 
[Chorus]
"I will always..."
1:47-2:19
  + - + - + - + - + - + - + - + - + - + - + - + - + - + - + - + -
G|7--------------|--------------3|--------------2|--------------7|
D|--------------5|---------------|---------------|---------------|
A|---------------|---------------|---------------|---------------|
E|---------------|---------------|---------------|---------------|
 
  + - + - + - + - + - + - + - + - + - + - + - + -
G|---------------|--------------3|--------------2|
D|--------------5|---------------|---------------|
A|---------------|---------------|---------------|
E|---------------|---------------|---------------|
 
 
[Instrumental Break]
2:04-2:19
  + - + - + - + - + - + - + - + - + - + - + - + - + - + - + - + -
G|---------------|---------------|---------------|--------------|
D|---------------|---------------|---------------|--------------|
A|---------------|--------------1|--------------0|--------------|
E|1-------------3|---------------|---------------|-------------1|
 
  + - + - + - + - + - + - + - + - + - + - + - + -
G|---------------|---------------|---------------|
D|---------------|---------------|---------------|
A|---------------|--------------1|--------------0|
E|--------------3|---------------|---------------|
 
 
2:20-2:49 resting (no playing)
 
 
[Intrumental]
2:50-3:50
  + - + - + - + - + - + - + - + - + - + - + - + - + - + - + - + -
G|---------------|---------------|---------------|---------------|
D|---------------|---------------|---------------|---------------|
A|5--------------|--------------1|--------------0|--------------5|
E|--------------3|---------------|---------------|---------------|
 
  + - + - + - + - + - + - + - + - + - + - + - + - + - + - + - + -
G|---------------|---------------|---------------|---------------|
D|---------------|---------------|---------------|---------------|
A|---------------|--------------1|--------------0|---------------|
E|--------------3|---------------|---------------|--------------1|
 
  + - + - + - + - + - + - + - + - + - + - + - + - + - + - + - + -
G|---------------|---------------|---------------|---------------|
D|---------------|---------------|---------------|---------------|
A|---------------|--------------1|--------------0|---------------|
E|--------------3|---------------|---------------|--------------1|
 
  + - + - + - + - + - + - + - + - + - + - + - + - + - + - + - + -
G|---------------|---------------|---------------|---------------|
D|---------------|---------------|---------------|---------------|
A|---------------|--------------1|--------------0|--------------5|
E|--------------3|---------------|---------------|---------------|
 
  + - + - + - + - + - + - + - + - + - + - + - + - + - + - + - + -
G|---------------|---------------|---------------|---------------|
D|---------------|---------------|---------------|---------------|
A|---------------|--------------1|--------------0|--------------5|
E|--------------3|---------------|---------------|---------------|
 
  + - + - + - + - + - + - + - + - + - + - + - + - + - + - + - + -
G|---------------|---------------|---------------|--------------7|
D|---------------|---------------|---------------|---------------|
A|---------------|--------------1|--------------0|---------------|
E|--------------3|---------------|---------------|---------------|
 
  + - + - + - + - + - + - + - + - + - + - + - + - + - + - + - + -
G|---------------|--------------3|--------------2|--------------7|
D|--------------5|---------------|---------------|---------------|
A|---------------|---------------|---------------|---------------|
E|---------------|---------------|---------------|---------------|
 
  + - + - + - + - + - + - + - + - + - + - + - + -
G|---------------|--------------3|--------------2||
D|--------------5|---------------|---------------||
A|---------------|---------------|---------------||
E|---------------|---------------|---------------||
 
3:52 onwards is the end of the song, no playing.
            
Submit corrections

↑ Back to top | Tablatures and chords for acoustic guitar and electric guitar, ukulele, drums are parodies/interpretations of the original songs. You may use it for private study, scholarship, research or language learning purposes only