» » »

Gorillaz - Pirate Jet Bass

Artists:  A B C D E F G H I J K L M N O P Q R S T U V W X Y Z # 

Pirate Jet Bass

(ver. 2) Click to play this song!
Gorillaz
 Rating:
4.1/5 (31 vote)


 Pirate Jet lessons Tabs too difficult? Try these video lessons and learn fast
 
                No bass during intro

[Verse]
G|--------------------|--------------------|------------------|--------------------|
D|--------------------|--------------------|------------------|--------------------|
A|------------11------|------------11------|------------6-----|--------------------|
E|6--6-6--9--9--9-9--1|6--6-6--9--9--9-9--1|2--2-2--4--4-4----|2--2-2-----4--1--1-1|

G|--------------------|-----------------------|                                          
D|--------------------|-----------------------|
A|1--1-1--------------|-----------------------|
E|--------2-2--2-2----|4-4--4-4--4-4---4--4--4|

[Chorus]
G|--------------------|--------------------|------------------|--------------------|
D|--------------------|--------------------|------------------|--------------------|
A|------------11------|------------11------|------------6-----|--------------------|
E|6--6-6--9--9--9-9--1|6--6-6--9--9--9-9--1|2--2-2--4--4-4----|2--2-2-----4--1--1-1|

G|--------------------|-----------------------|                                     
D|--------------------|-----------------------|
A|1--1-1--------------|-----------------------|
E|--------2-2--2-2----|4-4--4-4--4-4---4--4--4|

[Verse]
G|--------------------|--------------------|------------------|--------------------|
D|--------------------|--------------------|------------------|--------------------|
A|------------11------|------------11------|------------6-----|--------------------|
E|6--6-6--9--9--9-9--1|6--6-6--9--9--9-9--1|2--2-2--4--4-4----|2--2-2-----4--1--1-1|

G|--------------------|-----------------------|                                     
D|--------------------|-----------------------|
A|1--1-1--------------|-----------------------|
E|--------2-2--2-2----|4-4--4-4--4-4---4--4--4|

[Chorus]
G|--------------------|--------------------|------------------|--------------------|
D|--------------------|--------------------|------------------|--------------------|
A|------------11------|------------11------|------------6-----|--------------------|
E|6--6-6--9--9--9-9--1|6--6-6--9--9--9-9--1|2--2-2--4--4-4----|2--2-2-----4--1--1-1|

G|--------------------|-----------------------|                                     
D|--------------------|-----------------------|
A|1--1-1--------------|-----------------------|
E|--------2-2--2-2----|4-4--4-4--4-4---4--4--4|
            
Submit corrections



        Pirate Jet lessons Hard to play? Try these video lessons and learn fast Pirate Jet lessons
        
↑ Back to top | Tablatures and chords for acoustic guitar and electric guitar, ukulele, drums are parodies/interpretations of the original songs. You may use it for private study, scholarship, research or language learning purposes only